Song name
# A B C D E F G H I J K L M N O P Q R S T U V W X Y Z

Gorillaz - White Light tab

i hv alreddy tbbd this song, but my old one is wrong. So pleez r8 me! :)
 tuning eadgbe  effects dist and reverb
verse 2
e|------------------------------------|
B|------------------------------------|
G|------------------------------------| x hwevr times it is, then play:
D|------------------------------------|
A|------------------------------------|
E|--7-7-7-7-7-7-7\3-3-3-3-3-3-3-3-----|

e|------------------------------------|
B|------------------------------------|
G|------------------------------------|
D|------------------------------------|
A|------------------------------------|
E|---7-7-7-7-7-7-6-6-6-6-5-5-3-3------|

then play the same 4 the 3rd verse, then play this 4 the 4th verse.

e|--------------------------------------------|
B|--------------------------------------------|
G|---0-----------0-----------0------------0---|
D|---5-----------5-----------5------------5---|
A|--------------------------------------------|
E|--------------------------------------------|

bridgy bit:1

e|-----------------------------|
B|-----------------------------|
G|-----------------------------|
D|-----------------------------|
A|-----------------------------|
E|--0~-0~--5-3--0~--0~--5-3--5-|

bridgy bit 2

e|---------------           e|------------|
B|----7----8----- x3, then  B|-------12-^-|
G|------7----7---           G|--7~\6/-----|
D|---------------           D|------------|
A|---------------           A|------------|
E|---------------           E|------------|

solo bit

e|-----------------------------------------------|---------|
B|--12^ (slowly bend while plucking)-11-11-10-8--|-12^-12--|
G|-----------------------------------------------|---------| bend 2 end
D|-----------------------------------------------|---------|
A|-----------------------------------------------|---------|
E|-----------------------------------------------|---------|


KEY
\ slide down
/ slide up
^ bend
~ vibrato


note: bridgey bit 1 is played palm muted!!!
Tap to rate this tab
 
# A B C D E F G H I J K L M N O P Q R S T U V W X Y Z