Song name
# A B C D E F G H I J K L M N O P Q R S T U V W X Y Z

Gorki - Mia tab

I think this is the correct version of Mia, if you have a beter idea something better, mail me!
ximi16@gmail.com
E |---------------0------------0----------------------------------|
B |----1-1-----3-------3---1-------3--1---------------------------|
G |----2-2-----2-------0---0-------0--0---------------------------|
D |---------------------------------------------------------------|
A |--0--------0-----------------3---------------------------------|
E |--------------------3------------------------------------------|


E |---------------0------------------------------------------------|
B |----1-1-----3-------3---1-------1---0--1------------------------|
G |----2-2-----2-------0---0-------0---0---------------------------|
D |----------------------------------------------------------------|
A |--0--------0----------------------------------------------------|
E |--------------------3-------------------------------------------|


E |---------------0------------0----------------------------------|
B |----1-1-----3-------3---1-------3--1---------------------------|
G |----2-2-----2-------0---0-------0--0---------------------------|
D |---------------------------------------------------------------|
A |--0--------0-----------------3---------------------------------|
E |--------------------3------------------------------------------|

E |---------------0------------------------------------------------|
B |----1-1-----3-------3---1-------1---0--1------------------------|
G |----2-2-----2-------0---0-------0---0---------------------------|
D |----------------------------------------------------------------|
A |--0--------0----------------------------------------------------|
E |--------------------3-------------------------------------------|
Tap to rate this tab
# A B C D E F G H I J K L M N O P Q R S T U V W X Y Z