Song name
# A B C D E F G H I J K L M N O P Q R S T U V W X Y Z

Gothminister - Darkside tab

-------------------------------------------------------------------------------
			     DARKSIDE - Gothminister
-------------------------------------------------------------------------------
Tabbed by:mikkem719
Email:hunter719@yahoo.com

Tuning: Drop D (DADGBE)
Verse: x2
E|-------------------------------------------------------------------------|
B|-------------------------------------------------------------------------|
G|-------------------------------------------------------------------------|
D|-------------------------------------------------------------------------|
A|-000-000-00-0-000--000-000-00-0-000--------------------------------------|
D|-000-000-00-0-000--000-000-00-0-000--------------------------------------|
PM___________________________________|
E|-------------------------------------------------------------------------|
B|-------------------------------------------------------------------------|
G|-------------------------------------------------------------------------|
D|-333-333-33-3-333--555-555-55-5-555--------------------------------------|
A|-111-111-11-1-111--333-333-33-3-333--------------------------------------|
D|-------------------------------------------------------------------------|
PM___________________________________|
Pre-chorus: x2
E|---------------------------------------------------------------------------|
B|---------------------------------------------------------------------------|
G|---------------------------------------------------------------------------|
D|-3-0----------------7----------------5-------------------------------------|
A|-3-0-0-0-0-0-00-00--7-7-7-7-7-7-7-7--5-5-5-5-5-55-55-----------------------|
D|-3-0-0-0-0-0-00-00--7-7-7-7-7-7-7-7--5-5-5-5-5-55-55-----------------------|
PM     |___________|    |___________|    |___________|
E|---------------------------------------------------------------------------|
B|---------------------------------------------------------------------------|
G|---------------------------------------------------------------------------|
D|-3-------2-----------------------------------------------------------------|
A|-3-3-3-3-2-2-222-----------------------------------------------------------|
D|-3-3-3-3-2-2-222-----------------------------------------------------------|
PM   |___|   |___|
Chorus:
E|-------------------------------------------------------------------------|
B|-------------------------------------------------------------------------|
G|-------------------------------------------------------------------------|
D|-------------------------------------------------------------------------|
A|---5-5---5---3---3---3h5----5-5---5---5---3---3h5------------------------|
D|-0-----0---0---0---0------0-----0---0---0---0----------------------------|
PM |     |   |   |   |      |     |   |   |   |
E|-------------------------------------------------------------------------|
B|-------------------------------------------------------------------------|
G|-------------------------------------------------------------------------|
D|-------------------------------------------------------------------------|
A|----1-1-1-1-1-1-1-1-1-----------------5-5-5-5-5-5-5----------------------|
D|-0-----------------------3-3-3-3-3-3-------------------------------------|
PM |
Bridge:
E|-------------------------------------------------------------------------|
B|-------------------------------------------------------------------------|
G|-------------------------------------------------------------------------|
D|-5------------------8----------------3-----------------1-----------------|
A|-5------------------8----------------3-----------------1-----------------|
D|-5------------------8----------------3-----------------1-----------------|

E|---------------------------------------------------------------------------|
B|---------------------------------------------------------------------------|
G|---------------------------------------------------------------------------|
D|-5----5----5--8----8----8--3----3----3--1-----1-----1----------------------|
A|-5----5----5--8----8----8--3----3----3--1-----1-----1----------------------|
D|-5555555555555888888888888833333333333331-1-1-1-1-1-1-1--------------------|
PM  |__| |__| || |__| |__| || |__| |__| ||  |_|   |_|   |
And so on and so forth, pretty simple song to learn
| /   slide up
| \   slide down
| h   hammer-on
| p   pull-off
| ~   vibrato
| +   harmonic
| x   Mute note
| |   Palm Mute
| b   Bend
| pb  Pre-bend
| br  Bend release
| pbr Pre-bend release
| brb Bend release bend

************************************
http://www.myspace.com/gothminister
Tap to rate this tab
 
# A B C D E F G H I J K L M N O P Q R S T U V W X Y Z