Song name
# A B C D E F G H I J K L M N O P Q R S T U V W X Y Z

Govt Mule - Steppin Lightly tab

INTRO:


-----------------------------------------------|
-----------------------------------------------|
-----------------------------------------------|
------------------------------------2-h4-------|
-----------0--2--2--2--h4--4--4----------------|
---0h2-2---------------------------------------|


PRE CHORUS:


-----------------------------------------------|
-----------------------------------------------|
-------------------------b4--------------------|
-----------------------------------------------|
---4--4--4--4--7--4----------------------------|
---2--2--2--2--5--2----------------------------|
Tap to rate this tab
# A B C D E F G H I J K L M N O P Q R S T U V W X Y Z