Song name
# A B C D E F G H I J K L M N O P Q R S T U V W X Y Z

Gowan - Criminal Mind tab

Tabbed by:bmc#31
Email:bobbymcaloney@hotmail.com
Just wanted to put this chorus part up as i haven't found it anywhere
Comments or corrections would be great!!!

Tuning:Standard

e|-3-6-5-3-------3-------6-5-3---------------------------------------------|
B|---------6-3-6---------------6-3---3-6-3---------------------------------|
G|---------------------------------5--------5-3-5--------------------------|
D|-------------------------------------------------------------------------|
A|-------------------------------------------------------------------------|
E|-------------------------------------------------------------------------|

e|---3---------------------------------------------------------------------|
B|-----6-4-3-------------3-4-3---------------------------------------------|
G|-----------5-3---3-5----------5------------------------------------------|
D|-------------------------------------------------------------------------|
A|-------------------------------------------------------------------------|
E|-------------------------------------------------------------------------|


e|-3-6-5-3-------3-------6-5-3---------------------------------------------|
B|---------6-3-6---------------6-3---3-6-3---------------------------------|
G|---------------------------------5--------5-3-5--------------------------|
D|-------------------------------------------------------------------------|
A|-------------------------------------------------------------------------|
E|-------------------------------------------------------------------------|

e|---------------------------------------------------------------------------|
B|--6------------------------------------------------------------------------|
G|----8-6-5------5-6-8-6-----------------------------------------------------|
D|----------8--8---------8---------------------------------------------------|
A|------------------------------6-8------------------------------------------|
E|---------------------------------------------------------------------------|
Tap to rate this tab
# A B C D E F G H I J K L M N O P Q R S T U V W X Y Z