Song name
# A B C D E F G H I J K L M N O P Q R S T U V W X Y Z

Grandaddy - Am 180 chords

 intro?
chorus
e[-----------------------------|
B[-----------------------------|
G[-333333-444444-555555--------|
D[-333333-444444-555555-333333-|
A[-111111-222222-333333-333333-|
E[----------------------111111-|

verse
e[------------------|
B[------------------|
G[-10---------------|
D[-10-(12x)-8-------|
A[-8--------8-(12x)-|
E[----------6-------|

iterlude
e[-----------------------|
B[-----------------------|
G[-----------------------|
D[-----------------------|
A[-----------3-----1-----|
E[-1---------------------|

intro 2x
chorus+intro 2x
verse 2x
chorus+intro 2x
verse 2x
chorus+intro 2x
iterlude 2x
chorus+intro 4x
           //intro//
          //chorus+intro//
         // verse//
Don't change your name
Keep it the same
For fear I may lose you again

I know you won't
It's just that I am unorganised
And I want to find you when
Something good happens
          //chorus+intro //

            //verse //
If you come down
We'll go to town
I haven't been there for years

But I'd be fine
Wasting our time
Not doing anything here
Just doing nothing
            // chorus+intro //

            // (verse) +interlude//
We'll sit for days
And talk about things
Important to us like whatever

We'll defuse bombs
Walk marathons
And take home whatever together

             //chorus+intro//
Whatever together
Whatever together
Whatever together
...
Tap to rate this tab
# A B C D E F G H I J K L M N O P Q R S T U V W X Y Z