Song name
# A B C D E F G H I J K L M N O P Q R S T U V W X Y Z

Gravenhurst - Damage tab

Damage by Gravenhurst
tab by Alexander Rex

standard tuning
Capo on 2nd fret

Am  x02210 G  320003
C   x32010 F  133210
E   022100 E7 022130
G*  x2003x Gm x1003x

i've just wrote down the first bass note of every bar to make the tab not so much confusing
but actually he hits the bass-notes 4 times a bar straight through out the song while 
using the thumb!
just listen to the recording to get the right rhythm.


intro
             !here it starts to fade in ...
   Am         G         C       /B      F         E
F#|---------------------------------------------------------------------------------------|
C#|-1-----1---0-----0---1-----1-------1-------1---0-----0---0-----0---0-----0---0-----0---|
A |---2-----2---0-----0---0-------0-------2-----2---1-----1---1-----1---1-----1---1-----1-|
E |-----2---------0---------2-------2-------3---------2---------2---------2---------2-----|
H |-0-------------------3-------2---------------------------------------------------------|
F#|-----------3-------------------------1---------0---------0---------0---------0---------|


   Am         G         C       /B      F         E
F#|---------------------------------------------------------------------------------------|
C#|-1-----1---0-----0---1-----1-------1-------1---0-----0---0-----0---0-----0---0-----0---|
A |---2-----2---0-----0---0-------0-------2-----2---1-----1---1-----1---1-----1---1-----1-|
E |-----2---------0---------2-------2-------3---------2---------2---------2---------2-----|
H |-0-------------------3-------2---------------------------------------------------------|
F#|-----------3-------------------------1---------0---------0---------0---------0---------|

   Am         G         C       /B      F         E                   E7
F#|-------------------------------------------------------------------0-------------------|
C#|-1-----1---0-----0---1-----1-------1-------1---0-----0---0-----3---------3---0-3-0-----|
A |---2-----2---0-----0---0-------0-------2-----2---1-----1---1-----1---1-----1-------1---|
E |-----2---------0---------2-------2-------3---------2---------2---------2-------------2-|
H |-0-------------------3-------2---------------------------------------------------------|
F#|-----------3-------------------------1---------0---------0---------0---------0---------|

   Am         G         C       /B      F         E
F#|-------------------------------------------------------------------0-------------------|
C#|-1-----1---0-----0---1-----1-------1-------1---0-----0---0-----0---------0---0-----0---|
A |---2-----2---0-----0---0-------0-------2-----2---1-----1---1-----1---1-----1---1-----0-|
E |-----2---------0---------2-------2-------3---------2---------2---------2---------2-----|
H |-0-------------------3-------2---------------------------------------------------------|
F#|-----------3-------------------------1---------0---------0---------0---------0---------|

A                                       E
    And now you've got your face on the scene
A                       E
page seventeen wltm someone like me
    G            A       E      D        A     G
our back door is open to people on their knees

   Am G     C  /B     F     E
emily don't go to the house tonight
Am           G              C   /B         F         E     E7
stay on your own count your blessings hold onto them tight
F             C            F           C
just one more week and the paper comes through
F             C               Am
just one more week and you're mine
F           C            Am  /G /F /E  G
people will say how they never saw the signs

A                                E
ugly boy in fourth form suffered a head blow
A                                      E
puts up the houses in the west country
G         A            E                D                 A
carefully maps out the garden hides the letters from your sister
            G  (320033)
they're not here to understand
            E7 (020100)
they're not here to understand

   Am G     C  /B     F     E
emily don't go to the house tonight
Am           G              C   /B         F         E     E7
stay on your own count your blessings hold onto them tight
F             C            F           C
just one more week and the paper comes through
F             C               Am
just one more week and you're mine
F           C            Am  /G /F /E  G
people will say how they never saw the signs

solo
F Am F Am
F Am F Am
F C Am /G /F /E
G E7

F             C            F           C
just one more week and the paper comes through
F             C               Am
just one more week and you're mine
F           C            Am  /G /F /E  G
people will say how they never saw the signs

F             C            F           C
just one more week and the paper comes through
F             C               Am
just one more week and you're mine
F           C            Am  /G /F /E  G*   Gm D
people will say how they never saw the signs



february 2014
Tap to rate this tab
# A B C D E F G H I J K L M N O P Q R S T U V W X Y Z