Guitaretab - guitar tabs
Song name
# A B C D E F G H I J K L M N O P Q R S T U V W X Y Z

Greeley Estates - Glimpse tab

its a very easy song to play.

drop d

guitar one intro
e-----------------------------------------|
b-----------------------------------------|
g-5p0---4p0---0-0-00--5p0---4p0---7-7-77--|
d-----5-----5--5-5--5-----5-----5--5-5--5-|
a-----------------------------------------|
d-----------------------------------------|

e----------------------------------------|
b----------------------------------------|
g-5p0---4p0---0-0-00--5p0---4p0-7777777--|
d-----5-----5--5-5--5-----5-----5555555--|
a----------------------------------------|
d----------------------------------------|

verse
both guitars
[ Tab from: http://www.guitaretab.com/g/greeley-estates/141571.html ]
e------------------------|
b------------------------|
g-----10-10-8--------7-7-|x2
d-000-10-10-8-0-0000-7-7-|
a-000-8--8--6-0-0000-5-5-|
d-000---------0-0000-----|

e---------------------------|
b---------------------------|
g-----10-10/12--------7/8-7-|x2
d-000-x--x-/-x-0-0000-7/8-7-|
a-000-8--8-/10-0-0000-5/6-5-|
d-000----------0-0000-------|

guitar 2 ends on

e---
b---
g---
d-0-
a-0-
d-0-

while guitar one plays intro
then play verse all over again

then you play

e-----------------|
b-----------------|
g-----7-7/8-----5-|x4
d-000-x-x/x-000-x-|
a-000-5-5/6-000-3-|
e-000-------000---|
  xxx       xxx

guitar 2

e---------------|
b---------------|
g-5-4-44-5-4-44-|
d-3-2-22-3-2-22-|
a-3-2-22-3-2-22-|
e-3-2-22-3-2-22-|

guitar one plays a palm muted variation of the intro then both guitars play verse again 
you continue with that throughtout the end of the song
Related for Glimpse tab
×
Glimpse