Guitaretab - guitar tabs
Song name
# A B C D E F G H I J K L M N O P Q R S T U V W X Y Z

Greeley Estates - Blue Morning tab

---------------------------------------------------------------------------
Blue Morning - Greeley Estates
---------------------------------------------------------------------------
Tabbed by: Shinsen88
Email: shinsen88@yahoo.com

Tuning: CGCFAD

INTRO (play 2x)
D|---------------------------------------------------------------|
A|-----------11-11-11-11-11-11-11-11-11-11-11------------9--9--9-|
F|-----------14-14-14-14-14-14-14-14-14-14-14-----------12-12-12-|
C|---------------------------------------------------------------|
G|-0-0-0-0-0----------------------------------0-0-0-0-0----------|
C|-0-0-0-0-0----------------------------------0-0-0-0-0----------|
   . . . . .                                  . . . . .

D|-------------------------------------------------------------|
A|--------9--9--9--9--9----------11-11-11-------11-11-11-11-11-|
F|-------12-12-12-12-12----------14-14-14-------14-14-14-14-14-|
C|-------------------------------------------------------------|
G|-0-0-0----------------0-0-0-0-0---------0-0-0----------------|
C|-0-0-0----------------0-0-0-0-0---------0-0-0----------------|
   . . .                . . . . .         . . .

D|-----------------------------|
A|-----------------------------|
F|-----------------------------|
C|-7p0-7h8p0-7p0-7h8p0-7p0-7h8-|
G|-----------------------------|
C|-----------------------------|

VERSE (play 2x)
D|-------------------------------------------------------------|
A|-------------------------------------------------------------|
F|-------------14-14-10-10-10-10-12-12-9-9-9-------------9-9-9-|
C|-0------------x--x--x--x--x--x--x--x-x-x-x-0-----------x-x-x-|
G|-0-0-0-0-0-0-12-12--8--8--8--8-10-10-7-7-7-0-0-0-0-0-0-7-7-7-|
C|-0-0-0-0-0-0-------------------------------0-0-0-0-0-0-------|
     . . . . .                                 . . . . .

D|--------------------------------------------------------|
A|--------------------------------------------------------|
F|-------9-9-9-9-9-------------14-14-10-10-10-12-12-9-9-9-|
C|-0-----x-x-x-x-x-0------------x--x--x--x--x--x--x-x-x-x-|
G|-0-0-0-7-7-7-7-7-0-0-0-0-0-0-12-12--8--8--8-10-10-7-7-7-|
C|-0-0-0-----------0-0-0-0-0-0----------------------------|
   . . .             . . . . .

D|---------------------------------------------|
A|---------------------------------------------|
F|-10-10-10-10-10-10-10-10-12-12-12-12-9-9-9-9-|
C|--x--x--x--x--x--x--x--x--x--x--x--x-x-x-x-x-|
G|--8--8--8--8--8--8--8--8-10-10-10-10-7-7-7-7-|
C|---------------------------------------------|

REPEAT INTRO 2x
REPEAT VERSE 2x

BREAKDOWN part 1
D|-----------------------|
A|-----------------------|
F|-----------------------|
C|-0---------------------|
G|-0-0-0-0-0-0--0-0--0-0-| (play 3x)
C|-0-0-0-0-0-0--0-0--0-0-|
     . . . . .  . .  . .

D|---------------------------------------------|
A|---------------------------------------------|
F|-10-10-10-10-10-10-10-10-12-12-12-12-9-9-9-9-|
C|--x--x--x--x--x--x--x--x--x--x--x--x-x-x-x-x-|
G|--8--8--8--8--8--8--8--8-10-10-10-10-7-7-7-7-|
C|---------------------------------------------|
[ Tab from: http://www.guitaretab.com/g/greeley-estates/181582.html ]
BREAKDOWN part 2 (rhythm plays the same as part 1, lead plays this)
D|---------------------------|
A|---------------------------|
F|---------------------------|
C|-0-------------------------|
G|-0-0-0-0-0-0-8-8p0-8p0-8p0-|
C|-0-0-0-0-0-0---------------|
     . . . . .

Tempo gradually decreases… (lead plays this)

D|---------------------------|
A|---------------------------|
F|---------------------------|
C|-0-------------------------|
G|-0-0-0-0-0-0-4-4p0-4p0-4p0-|
C|-0-0-0-0-0-0---------------|
     . . . . .

D|------------------------------------------------------|
A|------------------------------------------------------|
F|------------------------------------------------------|
C|-0----------------------------------------------------|
G|-0-0-0-0-0-0--0-0-0-0-0-0-0-0-0-0-0-0-0-0-0-0-0-0-0-0-|
C|-0-0-0-0-0-0--0-0-0-0-0-0-0-0-0-0-0-0-0-0-0-0-0-0-0-0-|
     . . . . .  . . . . . . . . . . . . . . . . . . . .

D|---------------------------------------------|
A|---------------------------------------------|
F|-10-10-10-10-10-10-10-10-12-12-12-12-9-9-9-9-|
C|--x--x--x--x--x--x--x--x--x--x--x--x-x-x-x-x-|
G|--8--8--8--8--8--8--8--8-10-10-10-10-7-7-7-7-|
C|---------------------------------------------|

BRIDGE
D|-------------------------------------------------------------------|
A|-------------------------------------------------------------------|
F|-------------------------------------------------------------------|
C|---3-3-3-3-3-3-3-3-2-2-2-2-2-2-2-2---------------------------------|
G|-0-0-0-0-0-0-0-0-0-0-0-0-0-0-0-0-0-3-3-3-3-3-3-3-3-2-2-2-2-2-2-2-2-| x2
C|-------------------------------------------------------------------|
     . . . . . . . . . . . . . . . . . . . . . . . . . . . . . . . .

D|-----------------------------------------------------------------|
A|-----------------------------------------------------------------|
F|-----------------------------------------------------------------|
C|---------------------------------5-5-5-5-5-5-5-5-4-4-4-4-4-4-4-4-|
G|-3-3-3-3-3-3-3-3-2-2-2-2-2-2-2-2-3-3-3-3-3-3-3-3-2-2-2-2-2-2-2-2-| x6
C|-3-3-3-3-3-3-3-3-2-2-2-2-2-2-2-2---------------------------------|

OUTRO (tempo gradually slows)
D|--------------------------------------------|
A|-----------11-11-11-11-11-11-11-11-11-11-11-|
F|-----------14-14-14-14-14-14-14-14-14-14-14-|
C|--------------------------------------------|
G|-0-0-0-0-0----------------------------------| x8
C|-0-0-0-0-0----------------------------------|
   . . . . .    

D|------------------------------------------------------------|
A|------------------------------------------------------------|
F|------------------------------------------------------------|
C|---------------------------------------------------------0~-|
G|-8--8-8-8--8-8--8-8--8-8-8-8--7--7-7-7--7-7--7-7--7-7-7--0~-| 
C|-8--8-8-8--8-8--8-8--8-8-8-8--7--7-7-7--7-7--7-7--7-7-7--0~-|


| .  palm mute
| “  tremolo pick
| *  pinch harmonic
| ~  let note ring
| /  slide up
| \  slide down
| h  hammer-on
| p  pull-off
| v  vibrato
| +  natural harmonic
| x  mute note
=============================================================

Related for Blue Morning tab
Advertisement will be closed in 10 seconds