Song name
# A B C D E F G H I J K L M N O P Q R S T U V W X Y Z

Green Day - Blitzkrieg Bop tab

-----------------------------------------------------------------------------
			  BLITZKRIEG BOP - Green Day
-----------------------------------------------------------------------------
Tabbed by: Ignacio "Coco" Vespoli
Email: cocofuhgawz@hotmail.com

Tuning: Normal (play the whole song with distortion)


Intro
e|-----------------------------------|
B|-----------------------------------|
G|-----------------------7-7-9-9-9---|
D|-----------------------7-7-9-9-9---|
A|--5-5-5-5-5--7-7-7-7-7-5-5-7-7-7---|
E|--3-3-3-3-3--5-5-5-5-5-------------|
 

Riff
e|--------------------------|
B|--------------------------|
G|--------------7-7-9-9-9---|
D|--7-7-7-7-7-7-7-7-9-9-9---|
A|--7-7-7-7-7-7-5-5-7-7-7---|
E|--5-5-5-5-5-5-------------|


Bridge
e|------------------------|
B|------------------------|
G|--7-7-9-9-7-7-7---------|
D|--7-7-9-9-7-7-7-7-7-7---|
A|--5-5-7-7-5-5-5-7-7-7---|
E|----------------5-5-5---|


Verse
e|-----------------------------------------------|
B|-----------------------------------------------|
G|-----------------------------------7-7-9-9-9---|
D|-----------------------------------7-7-9-9-9---|
A|--7-7-7-7-7-7-7-7-7<
                        
                    
Tap to rate this tab
# A B C D E F G H I J K L M N O P Q R S T U V W X Y Z