Song name
# A B C D E F G H I J K L M N O P Q R S T U V W X Y Z

Green Day - See The Light tab

Green Day - See The Light

I. Intro
Gtr 2
e|--2--x--|
B|--3--2--|
G|--2--2--|
D|--0--2--|
A|--0--0--|
E|--x--x--|

II. Verse
Gtr 1
e|----------------------|
B|----------------------| x4
G|--6-------------------|
D|--6--6-6-6-6-6-6-6-6--|
A|--4--6-6-6-6-6-6-6-6--|
E|-----4-4-4-4-4-4-4-4--|

Gtr 2
e|---------------------------------------------------------------------------|
B|---------------------------------------------------------------------------|
G|--6-------------------6--8-8-8-8-8-8-8-8--6-------------------6------------|
D|-----6-6-6-6-6-6-6-6-------------------------6-6-6-6-6-6-6-6----6-6-6-6-\--|
A|--4-------------------4--6-6-6-6-6-6-6-6--4-------------------4---------\--|
E|-----4-4-4-4-4-4-4-4-------------------------4-4-4-4-4-4-4-4----4-4-4-4-\--|

III. Chorus
Gtr 1
e|-----------------------------------------------------|
B|-----------------------------------------------------| x3
G|--6-6-6-6-6-6-11-11-10-10---------------------6------|
D|--6-6-6-6-6-6-11-11-10-10-6-6-6-6-6-6-6-6-6-6-4-6-6--|
A|--4-4-4-4-4-4--9--9--8--8-6-6-6-6-6-6-6-6-6-6-4-6-6--|
E|--------------------------4-4-4-4-4-4-4-4-4-4---4-4--|

e|-----------------------------------------------------|
B|-----------------------------------------------------| 
G|--6-6-6-6-6-6-11-11-10-10-8-8-8-8-8-8-8-8-8-8-6-8-8--|
D|--6-6-6-6-6-6-11-11-10-10-8-8-8-8-8-8-8-8-8-8-6-8-8--|
A|--4-4-4-4-4-4--9--9--8--8-6-6-6-6-6-6-6-6-6-6-4-6-6--|
E|-----------------------------------------------------|

Gtr 2
e|----------------------------------------------------------------------------------|
B|--------14-------14--------16-------14-------13-------13----13----13----16----13--| x3
G|--13-13----13-13-----13-13----13-13----13-13----13-13----13----13----13----13-----|
D|----------------------------------------------------------------------------------|
A|----------------------------------------------------------------------------------|
E|----------------------------------------------------------------------------------|

e|----------------------------------------------------------------------------------|
B|--------14-------14--------16-------14-------16-------16----16----16----16----16--|
G|--13-13----13-13-----13-13----13-13----13-13----13-13----13----13----13----13-----|
D|----------------------------------------------------------------------------------|
A|----------------------------------------------------------------------------------|
E|----------------------------------------------------------------------------------|

IV. Verse
Gtr 1
e|----------------------|
B|----------------------| x8
G|--6-------------------|
D|--6--6-6-6-6-6-6-6-6--|
A|--4--6-6-6-6-6-6-6-6--|
E|-----4-4-4-4-4-4-4-4--| 

Gtr 2
e|---------------------------------------------------------------------------------|
B|---------------------------------------------------------------------------------|
G|--6-------------------6--8-8-8-8-8-8-8-8--6-------------------6------------------|
D|-----6-6-6-6-6-6-6-6-------------------------6-6-6-6-6-6-6-6----6-6-6-6-6-6-6-6--|
A|--4-------------------4--6-6-6-6-6-6-6-6--4-------------------4------------------|
E|-----4-4-4-4-4-4-4-4-------------------------4-4-4-4-4-4-4-4----4-4-4-4-4-4-4-4--|

e|---------------------------------------------------------------------------|
B|---------------------------------------------------------------------------|
G|--6-------------------6--8-8-8-8-8-8-8-8--6-------------------6------------|
D|-----6-6-6-6-6-6-6-6-------------------------6-6-6-6-6-6-6-6----6-6-6-6-\--|
A|--4-------------------4--6-6-6-6-6-6-6-6--4-------------------4---------\--|
E|-----4-4-4-4-4-4-4-4-------------------------4-4-4-4-4-4-4-4----4-4-4-4-\--|

V. Chorus
Gtr 1
e|-----------------------------------------------------|
B|-----------------------------------------------------| x3
G|--6-6-6-6-6-6-11-11-10-10---------------------6------|
D|--6-6-6-6-6-6-11-11-10-10-6-6-6-6-6-6-6-6-6-6-4-6-6--|
A|--4-4-4-4-4-4--9--9--8--8-6-6-6-6-6-6-6-6-6-6-4-6-6--|
E|--------------------------4-4-4-4-4-4-4-4-4-4---4-4--|

e|------------------------------|
B|------------------------------| 
G|--6-6-6-6-6-6-11-11-10-10-8\--|
D|--6-6-6-6-6-6-11-11-10-10-8\--|
A|--4-4-4-4-4-4--9--9--8--8-6\--|
E|------------------------------|

Gtr 2
e|----------------------------------------------------------------------------------|
B|--------14-------14--------16-------14-------13-------13----13----13----16----13--| x3
G|--13-13----13-13-----13-13----13-13----13-13----13-13----13----13----13----13-----|
D|----------------------------------------------------------------------------------|
A|----------------------------------------------------------------------------------|
E|----------------------------------------------------------------------------------|

e|----------------------------------------|
B|--------14-------14--------16-------14--|
G|--13-13----13-13-----13-13----13-13-----|
D|----------------------------------------|
A|----------------------------------------|
E|----------------------------------------|

VI. Solo
Gtr 1 Repeats Chorus

Gtr 2
e|------------------------------------------------------------------12----12--|
B|---------------------------------------13-------13----13----13--------------|
G|--10-8-------8-10-11-11-11-10-10-13-13----13-13----13----13----13----13-----|
D|-------11-11----------------------------------------------------------------|
A|----------------------------------------------------------------------------|
E|----------------------------------------------------------------------------|

e|--13-11-------11-13-14-14-14-13-13-13-11-11-11---11-----11---11---16---11--|
B|--------14-14----------------------------------9----9-9----9----9----9-----|
G|---------------------------------------------------------------------------|
D|---------------------------------------------------------------------------|
A|---------------------------------------------------------------------------|
E|---------------------------------------------------------------------------|

e|------------------------------------------------------------------12----12--|
B|---------------------------------------13-------13----13----13--------------|
G|--10-8-------8-10-11-11-11-10-10-13-13----13-13----13----13----13----13-----|
D|-------11-11----------------------------------------------------------------|
A|----------------------------------------------------------------------------|
E|----------------------------------------------------------------------------|

e|--13-11-------11-13-14-14-14-13-13-13-11-11-11---11-----11---11---11---11--|
B|--------14-14----------------------------------9----9-9----9----9----9-----|
G|---------------------------------------------------------------------------|
D|---------------------------------------------------------------------------|
A|---------------------------------------------------------------------------|
E|---------------------------------------------------------------------------|

VII. Verse
Gtr 1
e|----------------------|
B|----------------------| x10
G|--6-------------------|
D|--6--6-6-6-6-6-6-6-6--|
A|--4--6-6-6-6-6-6-6-6--|
E|-----4-4-4-4-4-4-4-4--|

Gtr 2
e|----11---11-------11-9-8~--------------------------------------------------------------|
B|--9----9----9~--9----------------------------------------------------------------------|
G|---------------------------6-------------------6--8-8-8-8-8-8-8-8--6-------------------|
D|------------------------------6-6-6-6-6-6-6-6-------------------------6-6-6-6-6-6-6-6--|
A|---------------------------4-------------------4--6-6-6-6-6-6-6-6--4-------------------|
E|------------------------------4-4-4-4-4-4-4-4-------------------------4-4-4-4-4-4-4-4--|

e|-----------------------------------------------------------------------------------------------|
B|-----------------------------------------------------------------------------------------------|
G|--6-------------------6-------------------6--8-8-8-8-8-8-8-8--6-------------------6------------|
D|-----6-6-6-6-6-6-6-6-----6-6-6-6-6-6-6-6-------------------------6-6-6-6-6-6-6-6----6-6-6-6-\--|
A|--4-------------------4-------------------4--6-6-6-6-6-6-6-6--4-------------------4---------\--|
E|-----4-4-4-4-4-4-4-4-----4-4-4-4-4-4-4-4-------------------------4-4-4-4-4-4-4-4----4-4-4-4-\--|

VIII. Repeat Chorus

IX. Outro
e|--------|
B|--------| x4
G|--6-----|
D|--6--6--|
A|--4--6--|
E|-----4--|
(Then)
Repeat Intro
Tap to rate this tab
# A B C D E F G H I J K L M N O P Q R S T U V W X Y Z