Guitaretab - guitar tabs
Song name
# A B C D E F G H I J K L M N O P Q R S T U V W X Y Z

Green Day - 21 Guns tab

Artist: Green Day
Song: 21 Guns (My Fav)
Album: 21st Century Breakdown
Tabbed by: Necriononguitar (more tabs)
E-Mail: tim.rathgen@gmx.de

Tuning: Standard

The best tab has got the bad Solo-Tab, so i made a new one. I think its pretty simular 
the Album-Solo. Its played on a F-Chord. If you think im crazy or mad, please tell me 
problem about my tab and THEN rate it bad.
Thank you!

| /  slide up
| \  slide down
| h  hammer-on
| p  pull-off
| ~  vibrato
| +  harmonic
| x  Mute note


E------------------------------------------------------------------------|
B-----------10~-------8(~)--(8)h10---------------------------------------|
G-----------------------------------10~------10-------9(~)--(9)h10--7~---|
D-------10--------10----------------------10-----10----------------------|
A--/8--------------------------------------------------------------------|
E------------------------------------------------------------------------|
[ Tab from: http://www.guitaretab.com/g/green-day/190993.html ]
                              /Long and hard vibrato here
E----------------------------------------------------------|
B----------------------------------------------------------|
G-----7-----------------------9~--9~--9~-10---12~----------|
D--8-----8-----10--8---------------------------------------|
A---------------------10-----------------------------------|
E----------------------------------------------------------|


E------------------------------------------------------------------------|
B-----------10~-------8(~)--(8)h10---------------------------------------|
G-----------------------------------10~------10-------9(~)--(9)h10--7~---|
D-------10--------10----------------------10-----10----------------------|
A--/8--------------------------------------------------------------------|
E------------------------------------------------------------------------|

                              /Long and hard vibrato here
E--------------------------------------------(12~)---------|
B----------------------------------------------------------|
G-----7-----------------------9~--9~--9~-10---12~----------|
D--8-----8-----10--8---------------------------------------|
A---------------------10-----------------------------------|
E----------------------------------------------------------|

(less distorcion here)       (normal now)
E---------------------------------------------------|
B---3---------1-------------------------------------|
G-----3---------2------------(/)9~--9~--9~--9~\-----|
D-------3---------3---------------------------------|
A---------------------------------------------------|
E---------------------------------------------------|


Thats it, i hope u enjoyed. I think its easy to play, but way better to play in a band. 
fuckin get up and have some fun :D
Related for 21 Guns tab
21 Guns chords by Green Day