Song name
# A B C D E F G H I J K L M N O P Q R S T U V W X Y Z

Green Day - I Want To Be On Tv tab

-------------------------------------------------------------------------------
			     I want to be on T.V. - Green Day
-------------------------------------------------------------------------------
Tabbed by:King Gillies
Email:Kiss_my_ass_877@hotmail.com

Tuning: Standard

This is like the intro and verse I can't be arsed to put number of strums but just 
to CD and change when it does. It's up and down strokes.

e|----------------|
B|----------------|
G|----------------|
D|--5---3---------|
A|--3---1---------|
E|----------------|

Then this is the chorus pretty simple. Its down then up stroke, but you can just pick it 
and play what you feel is good.
e|-------------------------------------|
B|-------------------------------------|
G|-------------------------------------|
D|-2-2-2-2-4-4-4-4-5-5-5-5-6-6-6-7-7-7-|
A|-0-0-0-0-2-2-2-2-3-3-3-3-4-4-4-5-5-5-|
E|-------------------------------------|

End on

e|-----------------|
B|-----------------|
G|-----------------|
D|--5--------------|
A|--3--------------|
E|-----------------|

Well thats it, hopefully I've helped you in some way. Please rate as this is my first 
and I want to know if its any good but it sounds 100% correct to me.
Tap to rate this tab
 
# A B C D E F G H I J K L M N O P Q R S T U V W X Y Z