Song name
# A B C D E F G H I J K L M N O P Q R S T U V W X Y Z

Green Day - Jaded tab

Tablatura de NICO M. (nicokbbl@hotmail.com)

Artista: Green Day
Cancion: Jaded
Album: Insomniac (1995) 


1|---------------------------------------------------------|
2|---------------------------------------------------------|
3|----------------7-7----------------7-7-------------------|
4|--7-7-7-7-7-5-5-7-7--7-7-7-7-7-5-5-7-7-------------------|
5|--7-7-7-7-7-5-5-5-5--7-7-7-7-7-5-5-5-5-------------------|
6|--5-5-5-5-5-3-3------5-5-5-5-5-3-3-----------------------|



1|---------------------------------------------------------|
2|---------------------------------------------------------|
3|----------------7-7----------------7-7-------------------|x4
4|--7-7-7-7-7-5-5-7-7--7-7-7-7-7-5-5-7-7-------------------|
5|--7-7-7-7-7-5-5-5-5--7-7-7-7-7-5-5-5-5-------------------|
6|--5-5-5-5-5-3-3------5-5-5-5-5-3-3-----------------------|

   Somebody keep my balance
   I think I'm falling off
   Into a state of regression
   The expiration date
   Rapidly coming up
   It's leaving me behind to rank


1|-----------------------------------------------------------|
2|-----------------------------------------------------------|
3|-----------------------------------------------------------|
4|--6-6-6-6-6-6-6-6-6-6-6-6-7-7-7-7-5-5-7-5-7-7-7-7-5-5-7-5--|
5|--6-6-6-6-6-6-6-6-6-6-6-6-7-7-7-7-5-5-7-5-7-7-7-7-5-5-7-5--|
6|--4-4-4-4-4-4-4-4-4-4-4-4-5-5-5-5-3-3-5-3-5-5-5-5-3-3-5-3--|


  Always move forward
  Going "straight" will get you nowhere


1|-----------------------------------------------------------|
2|-----------------------------------------------------------|
3|-----------------------------------------------------------|
4|--6-6-6-6-6-6-6-6-6-6-6-6-8-8-8-8-8-8-8-8------------------|
5|--6-6-6-6-6-6-6-6-6-6-6-6-8-8-8-8-8-8-8-8------------------|
6|--4-4-4-4-4-4-4-4-4-4-4-4-6-6-6-6-6-6-6-6------------------|

  There is no progress
  Evolution killed it all
  I found my place in nowhere


1|---------------------------------------------------------|
2|---------------------------------------------------------|
3|----------------7-7----------------7-7-------------------|
4|--7-7-7-7-7-5-5-7-7--7-7-7-7-7-5-5-7-7-------------------|
5|--7-7-7-7-7-5-5-5-5--7-7-7-7-7-5-5-5-5-------------------|
6|--5-5-5-5-5-3-3------5-5-5-5-5-3-3-----------------------|



1|---------------------------------------------------------|
2|---------------------------------------------------------|
3|----------------7-7----------------7-7-------------------|x4
4|--7-7-7-7-7-5-5-7-7--7-7-7-7-7-5-5-7-7-------------------|
5|--7-7-7-7-7-5-5-5-5--7-7-7-7-7-5-5-5-5-------------------|
6|--5-5-5-5-5-3-3------5-5-5-5-5-3-3-----------------------|

  I'm taking one step sideways
  Leading with my crutch
  Got a fucked up equilibrium
  Count down from 9 to 5
  Hooray! We're gonna die!
  Blessed into our extinction


1|-----------------------------------------------------------|
2|-----------------------------------------------------------|
3|-----------------------------------------------------------|
4|--6-6-6-6-6-6-6-6-6-6-6-6-7-7-7-7-5-5-7-5-7-7-7-7-5-5-7-5--|
5|--6-6-6-6-6-6-6-6-6-6-6-6-7-7-7-7-5-5-7-5-7-7-7-7-5-5-7-5--|
6|--4-4-4-4-4-4-4-4-4-4-4-4-5-5-5-5-3-3-5-3-5-5-5-5-3-3-5-3--|


  Always move forward
  Going "straight" will get you nowhere


1|-----------------------------------------------------------|
2|-----------------------------------------------------------|
3|-----------------------------------------------------------|
4|--6-6-6-6-6-6-6-6-6-6-6-6-8-8-8-8-8-8-8-8------------------|
5|--6-6-6-6-6-6-6-6-6-6-6-6-8-8-8-8-8-8-8-8------------------|
6|--4-4-4-4-4-4-4-4-4-4-4-4-6-6-6-6-6-6-6-6------------------|

  There is no progress
  Evolution killed it all
  I found my place in nowhere


1|---------------------------------------------------------|
2|---------------------------------------------------------|
3|----------------7-7----------------7-7-------------------|x4
4|--7-7-7-7-7-5-5-7-7--7-7-7-7-7-5-5-7-7-------------------|
5|--7-7-7-7-7-5-5-5-5--7-7-7-7-7-5-5-5-5-------------------|
6|--5-5-5-5-5-3-3------5-5-5-5-5-3-3-----------------------|



1|-----------------------------------------------------------|
2|-----------------------------------------------------------|
3|-----------------------------------------------------------|
4|--6-6-6-6-6-6-6-6-6-6-6-6-7-7-7-7-5-5-7-5-7-7-7-7-5-5-7-5--|
5|--6-6-6-6-6-6-6-6-6-6-6-6-7-7-7-7-5-5-7-5-7-7-7-7-5-5-7-5--|
6|--4-4-4-4-4-4-4-4-4-4-4-4-5-5-5-5-3-3-5-3-5-5-5-5-3-3-5-3--|


  Always move forward
  Going "straight" will get you nowhere


1|-----------------------------------------------------------|
2|-----------------------------------------------------------|
3|-----------------------------------------------------------|
4|--6-6-6-6-6-6-6-6-6-6-6-6-8-8-8-8-8-8-8-8------------------|
5|--6-6-6-6-6-6-6-6-6-6-6-6-8-8-8-8-8-8-8-8------------------|
6|--4-4-4-4-4-4-4-4-4-4-4-4-6-6-6-6-6-6-6-6------------------|

  There is no progress
  Evolution killed it all
  I found my place in nowhere


1|---------------------------------------------------------|
2|---------------------------------------------------------|
3|----------------7-7----------------7-7-------------------|x2
4|--7-7-7-7-7-5-5-7-7--7-7-7-7-7-5-5-7-7-------------------|
5|--7-7-7-7-7-5-5-5-5--7-7-7-7-7-5-5-5-5-------------------|
6|--5-5-5-5-5-3-3------5-5-5-5-5-3-3-----------------------|


   in nowhere...
   in noooowhere...
Tap to rate this tab
# A B C D E F G H I J K L M N O P Q R S T U V W X Y Z