Song name
# A B C D E F G H I J K L M N O P Q R S T U V W X Y Z

Greg Joy - Sylvie tab

Greg Joy - Sylvie [Celtic Secrets]


|-------------------------------------0-------------------|
|----------------------------3--------0-------------------|
|--------------------------4--------0---0-----------------|
|------2-------0-----2---4-----(0)2-----------0-----2-----|
|----2---2---2-----2---2--------------------2-----2---2---|
|--0-------2-----0------------------------2-----0---------|

|---------------------------------------------------------|
|-----0-0-3-1-0-----0-------------------------------------| 2x
|-----4-----2---2-----0-------0-2-------------------------|
|---2-2-----2-----2---0-4-2-4-----2-----------0-----2-----|
|-----------0-------------3---------2---2---2-----2---2---|
|---------------------------------0---0---2-----0---------|

|-----------------------------------------0-2-(2)3-2-0---------------|
|-----------1-0-----------------------3~5--------------3-0---0-------|
|-----5---3-2---2---2-2---2-0---------2~4------------------2---------|
|-----4-4---2-----2---4-4-----2--------------------------------2-4---|
|---2-2-----0-------------------2---2----------------2-------3---2---|
|---------------------------2-----0----------------------------------|

|-------------------------------------0-------------------|
|----------------------------3--------0-------------------|
|--------------------------4--------0---0-----------------|
|--2-----------0-----2---4-----(0)2-----------0-----2-----|
|----2---2---2-----2---2--------------------2-----2-------|
|--0---0---2-----0------------------------2-----0---------|
Tap to rate this tab
# A B C D E F G H I J K L M N O P Q R S T U V W X Y Z