Song name
# A B C D E F G H I J K L M N O P Q R S T U V W X Y Z

Greg Joy - Let No Man Steal Your Thyme tab

Greg Joy - Let No Man Steal Your Thyme [Celtic Secrets II)


|----------------0-----3-0-------0-------0-------0--------------|  2x (intro)
|--------1-----3---------------3-------1-------0---------0------|
|------2-----2-------2-------4-------2-------0---------0---2----|
|----2-----0-------2-------5-------3-------2---------2-----2----|
|--0-------------------------------------------------------0----|
|--------------------------------------------------0------------|

|----------------------------0-0---0-----------------|
|------0-1-------------------0---3---3-1-------------|
|----2-----2---2-0-2-0-------0---2-------2-----2-----|
|--2---------2---------2-----2---0-----------2---2---|
|----0-------------------2---------------0-0---------|
|----------------0---------0-------------------------|


|------0-0-------------------------0-----------------------------|
|--1-3-0---3-1-0-2---0-------0-1-3---3---0-3-1-------------0-----|
|------0---2-------2-------2---------2-2-------2---0-----0---2---|
|------2---0-----0-----2-2-----------0---2-------2---2-2-----2---|
|--------------------------0-------------------0-------------0---|
|----------------------0-----------------0-----------0-----------|
Tap to rate this tab
# A B C D E F G H I J K L M N O P Q R S T U V W X Y Z