Song name
# A B C D E F G H I J K L M N O P Q R S T U V W X Y Z

Gregory And The Hawk - Blame Qui tab


tuning: E A D G B [F]


intro:

|--0-0-0-0-0-0-0--0-0-0-3-3-3-0----|
|--4-4-4-4-4-4-4--3-3-3-3-3-3-4----|
|--4-4-4-4-4-4-3--3-3-3-3-3-3-3----|
|--6-6-6-6-6-6-5--3-3-3-3-3-3-5----|
|----------------------------------|
|----------------------------------|

|--------0-----------0-----------0-----------0---------|
|------4---4-------4---4-------4---4-------4---4-------|
|----4-------4---4-------4---3-------3---3-------3-----|
|--6-----------6-----------5-----------5---------------|
|------------------------------------------------------|
|------------------------------------------------------|

|--------3-----------3-----------0-----------0---------|
|------3---3-------3---3-------4---4-------4---4-------|
|----3-------3---3-------3---3-------3---3-------3-----|
|--3-----------3-----------5-----------5---------------|
|------------------------------------------------------|
|------------------------------------------------------|


verse1:

           If I'm bound to forget you...
|--------0-----------0-----------0-----------0---------|
|------4---4-------4---4-------4---4-------4---4-------|
|----4-------4---4-------4---3-------3---3-------3-----|
|--6-----------6-----------5-----------5---------------|
|------------------------------------------------------|
|------------------------------------------------------|

|--------3-----------3-----------0-----------0---------|
|------3---3-------3---3-------4---4-------4---4-------|
|----3-------3---3-------3---3-------3---3-------3-----|
|--3-----------3-----------5-----------5---------------|
|------------------------------------------------------|
|------------------------------------------------------|

|--------0-----------0-----------0-----------0---------|
|------4---4-------4---4-------4---4-------4---4-------|
|----4-------4---4-------4---3-------3---3-------3-----|
|--6-----------6-----------5-----------5---------------|
|------------------------------------------------------|
|------------------------------------------------------|

|------------------------------------------------------|
|--------4---------------------------------------------|
|------4---4---------7-----------5-----------5---------|
|------------------8---8-------6---6-------6---6-------|
|----6-------6---8-------8---8-------8---8-------8-----|
|--7-----------6-----------8-----------8---------------|

|------------------------------------------------------|
|--------4---------------------------------------------|
|------------------------------------------------------|
|------5---5-------------------------------------------|
|----6-------6-----------------------------------------|
|--6-----------6---------------------------------------|


verse2:

        If you've been tellin' all the tall tales...
|--------0-----------0-----------0-----------0---------|
|------4---4-------4---4-------4---4-------4---4-------|
|----4-------4---4-------4---3-------3---3-------3-----|
|--6-----------6-----------5-----------5---------------|
|------------------------------------------------------|
|------------------------------------------------------|

|--------3-----------3-----------0-----------0---------|
|------3---3-------3---3-------4---4-------4---4-------|
|----3-------3---3-------3---3-------3---3-------3-----|
|--3-----------3-----------5-----------5---------------|
|------------------------------------------------------|
|------------------------------------------------------|

|--------0-----------0-----------0-----------0---------|
|------4---4-------4---4-------4---4-------4---4-------|
|----4-------4---4-------4---3-------3---3-------3-----|
|--6-----------6-----------5-----------5---------------|
|------------------------------------------------------|
|------------------------------------------------------|

|------------------------------------------------------|
|--------4---------------------------------------------|
|------4---4---------7-----------5-----------5---------|
|------------------8---8-------6---6-------6---6-------|
|----6-------6---8-------8---8-------8---8-------8-----|
|--7-----------6-----------8-----------8---------------|


bridge:

|------------------------------------------------------|
|--------4-----------4---------4-----4-----3-----3-----|
|------5---5-------5---5-----5-----5-----5-----5-------|  3x
|----5-----------5-------5-6-----6-----5-----5---------|
|--3---------3-5---------------------------------------|
|------------------------------------------------------|

|------------------------------------------------------|
|--------4-----------4-----------4---------------------|
|------5---5-------5---5-------3---3-------------------|
|----5-------5---5-------5---1-------1-----------------|
|--3-----------3-----------1-----------1---------------|
|------------------------------------------------------|


verse3:

   Say hey, what's the big deal...
|--------0-----------0-----------0-----------0---------|
|------4---4-------4---4-------4---4-------4---4-------|
|----4-------4---4-------4---3-------3---3-------3-----|  3x
|--6-----------6-----------5-----------5---------------|
|------------------------------------------------------|
|------------------------------------------------------|

   what a tragedy...      what a tragedy...
|------------------------------------------------------|
|--------4-----------------------1-----------1---------|
|------4---4---------7---------1---1-------1---1-------|
|------------------8---8-----3-------3---3-------3-----|
|----6-------6---8-------8-3-----------3---------------|
|--7-----------6---------------------------------------|

 what a tragedy, you and me
|------------------------------------------------------|
|--------0-------------4-------------------------------|
|------1---1-------------------------------------------|
|----1-------1-------5---5-----------------------------|
|--2-----------2---6-------6---------------------------|
|----------------6-------------------------------------|

____________________________________________________________________

if i'm bound to forget you, don't you let me be
from the day that i met you i've been set on you
what a tragedy it'd be if you and me weren't happy

if you've been tellin all the tall tales end to end
since the day that we met and became good friends
then i've been lying too, is it really you

say
hey, what's the big deal
oh, where'd all the fun go
since we got serious i've been such a mess
blame the stars or a bleeding heart...
what a tragedy, you and me
Tap to rate this tab
# A B C D E F G H I J K L M N O P Q R S T U V W X Y Z