Song name
# A B C D E F G H I J K L M N O P Q R S T U V W X Y Z

Greyhoundz - Gunner tab

Tabbed by Francis

email/fs/myspace/facebook/twitter- f_sario@yahoo.com

cp#- 09283150081 txt for free lesson(how to tune to drop B,to play)

location- Lucena City


Sa mga marunong magtranslate ng bisaya sa tagolg...pwede paki translate ung lyrics 
nyo na lang sa email ko...or lagay nyo sa comment page...

pakirate/comment..thanks...:)

Tuning - Drop B

Intro-
|---------------------------------------------------------------------|
|---------------------------------------------------------------------|
|---------------------------------------------------------------------|
|-777-----888-555-777------222-555---777-----888-555-777------222-555-|2x
|-555-000-666-333-555--000-000-333---555-000-666-333-555--000-000-333-|
|-----000--------------000---------------000--------------000---------|
      ***              ***               ***              ***

Verse-
|--------------------------------------------------------------------------------|
|--------------------------------------------------------------------------------|
|--------------------------------------------------------------------------------|
|-000-3p0-3-----------000-------7p0-6---6-7-----6-7------8p7---7p6---8p7---7p6---|
|-000-3p0-3-3p0-2r*---000-------7p0-6---6-7-777-6-7-777--8p7-7-7p6-7-8p7-7-7p6---|
|-000-3p0-3-----------000-3-3-3-7p0-6---6-7-777-6-7-777--8p7-7-7p6-7-8p7-7-7p6---|
                                            ***     ***
|-------------------------------------------------------|
|-------------------------------------------------------|
|-------------------------------------------------------|
|-6-5--0--6-5-------------------------0-0-0-0-0-0-/12r*-|
|-6-5--0--6-5--5/11^-10^-8^-5^-5^-5r*-0-0-0-0-0-0-------|
|-6-5--0--6-5-------------------------0-0-0-0-0-0-------|
       *
Verse2|----------------------------------------------------------------------------------|
|----------------------------------------------------------------------------------------|
|----------------------------------------------------------------------------------------|
|-000-3p0-3-----------000-------7p0-6---6-7-----6-7------8p7---7p6---8p7---7p6-----------|
|-000-3p0-3-3p0-2r*---000-------7p0-6---6-7-777-6-7-777--8p7-7-7p6-7-8p7-7-7p6-----------|
|-000-3p0-3-----------000-3-3-3-7p0-6---6-7-777-6-7-777--8p7-7-7p6-7-8p7-7-7p6-----------|
                                            ***     ***
|-------------------------------------------------------|
|-------------------------------------------------------|
|-------------------------------------------------------|
|-6-5--0--6-5-------------------------0-0-0-0-0-0-------|
|-6-5--0--6-5--5/11^-10^-8^-5^-5^-5r*-0-0-0-0-0-0-------|
|-6-5--0--6-5-------------------------0-0-0-0-0-0-------|
       *


Chorus-
|---------------------------------------------------------------------|
|---------------------------------------------------------------------|
|---------------------------------------------------------------------|
|-777-----888-555-777------222-555---777-----888-555-777------222-555-|
|-555-000-666-333-555--000-000-333---555-000-666-333-555--000-000-333-|
|-----000--------------000---------------000--------------000---------|
      ***              ***               ***              ***
|---------------------------------------------------------------------|
|---------------------------------------------------------------------|
|---------------------------------------------------------------------|
|-777-----888-555-777------222-555---777-----888-555-777------888-555-|
|-555-000-666-333-555--000-000-333---555-000-666-333-555--000-333-333-|
|-----000--------------000---------------000--------------000---------|
      ***              ***               ***              ***

|-------------------------------------------------------|
|-------------------------------------------------------|
|-------------------------------------------------------|
|-------------------------------------------------------|
|-----------3p0-2r*-------------------------------------|
|-000-3p0-3---------000-3-3-3-555-5w\-------------------|

DO verse/chorus-

Chorus 2
(favorite part ko heheh...)
Senyas ug gisilya, giiwanan na diha
Ayaw mog katingala, di na gyud ko mo usab
|------------------------------|----------------------------------------|
|------------------------------|----------------------------------------|
|------------------------------|----------------------------------------|
|-000000-333333-6666665-55555--|-101010101010-999999-000000-333-6-5-3---|2x
|-000000-333333-6666665-55555--|-101010101010-999999-000000-333-6-5-3---|
|-000000-333333-6666665-55555--|-101010101010-999999-000000-333-6-5-3---|


Solo-
2:04                                           t t    t     t    t
|--------------------------------------------13-----14---15---14---13-|
|-------------------------------------13^~-----1515---15---15---15----|
|-------10----10----10-x-12--13p12------------------------------------|
|-10^r~----12----12----------------15---------------------------------|
|---------------------------------------------------------------------|
|---------------------------------------------------------------------|

2:09                           2:11
|------------------------------15^r^^^-------18^-----15-13------------|
|-15-15-14------------------------------------------------15-15^------|
|----------14-13-12----12^r-------------------------------------------|
|-------------------15------------------------------------------------|
|---------------------------------------------------------------------|
|---------------------------------------------------------------------|

2:15
|------------------------------------------------------|
|-13^(15)-15-13----------------------------------------|
|---------------14-13-12----10^---7-5------------------|
|------------------------12-----------7--7-5----5^r----|
|---------------------------------------------8--------|
|------------------------------------------------------|

2:19
|-13-10------------------------------------------------|
|-------13-10-9-8------8-------------------------------|
|-----------------10-7---7-10--77-8--------------------|
|-----------------------------------7-6-5--------------|
|------------------------------------------8-5r--------|
|------------------------------------------------------|

2:23
|-----------------------------------------------------|
|----------------------------6---6-8-8^rw-------------|
|----------------5-5---5--77---7----------------------|
|------------5-------7------------------------6-5-3---|
|-8-5-88-5-8---8------------------------------6-5-3---|
|---------------------------------------------6-5-3---|
  * * ** * * * * * * * *  ** * *

Bridge-

|------------------------------|----------------------------------------|
|------------------------------|----------------------------------------|
|------------------------------|----------------------------------------|
|-000000-333333-6666665-55555--|-101010101010-999999-000000-333-6-5-3---|2x
|-000000-333333-6666665-55555--|-101010101010-999999-000000-333-6-5-3---|
|-000000-333333-6666665-55555--|-101010101010-999999-000000-333-6-5-3---|

|---------------------------------------------------------------------|
|---------------------------------------------------------------------|
|---------------------------------------------------------------------|
|-0---6-5-3-0-----6-5-3-0-------6-5-3-00---000----6-5-3-00--000-------|
|-0---6-5-3-0-----6-5-3-0-------6-5-3-00---000----6-5-3-00--000-------|
|-0---6-5-3-0-----6-5-3-0-------6-5-3-00---000----6-5-3-00--000-------|
                                           **               **

|---------------------------------------------------------------------|
|---------------------------------------------------------------------|
|---------------------------------------------------------------------|
|-------00---000-----------00---000-----------00---000--------00--000-|ulit-ulit
|-------00---000-----------00---000-----------00---000--------00--000-|hanggang matapos
|-6-5-3-00---000-----6-5-3-00---000-----6-5-3-00---000--6-5-3-00--000-|
             **                 **                 **             **


I
Akong mga higala, pagdali na'g pag-anhi
Mintras maayo pang gabii
Ga huwat na mi sa inyo diri
Pagdaa baya maski ug gamay nga ilimnon
Atung tunga-tungaon, apud apuron
Mag-inato lang gud ta karon

Chorus:
Tagay nyor, gilumot na
Tagay nyor, gilumot na
Tagay nyor, gilumot na
Tagay nyor, tagay mo

II
Ay'g palabig banha makasamok sa silingan
Basig di mahuman ang gisugdan
Lisud pud, pa uliun tang tanan
Lami na kaayo pag-igo na ka unya, shot pa tang duha
Nagtuyok na kong panan-aw, lingaw lingaw
Wa na gyud ko'y uwaw

Chorus:
Tagay nyor, gilumot na
Tagay nyor, gilumot na
Tagay nyor, gilumot na
Tagay nyor, tagay mo

III
Senyas ug gisilya, giiwanan na diha
Ayaw mog katingala, di na gyud ko mo usab
Senyas ug gisilya giiwanan na diha
Ayaw mog katingala, di na gyud ko mo usab

IV
Sa pag uli palihug ampingi ang kasingkasing
Tagay nyor...
Sa pag uli palihug ampingi ang kasingkasing
Tagay nyor, gilumot na
Tagay nyor, gilumot na
Tagay nyor
Tap to rate this tab
 
# A B C D E F G H I J K L M N O P Q R S T U V W X Y Z