Song name
# A B C D E F G H I J K L M N O P Q R S T U V W X Y Z

Grieg Edvard - Hall Of The Mountain King tab

e |---------------------------|
B |---------------------------|
G |---------------------------|
D |-------0-2---2-1---1-0---0-|
A |-0-2-3-----3-----2-----1---|
E |---------------------------|

e |---------------------------|
B |---------------------------|
G |---------------2-0-------0-|
D |-------0-2---2-----2---2---|
A |-0-2-3-----3---------3-----|
E |---------------------------|

e |---------0---0-------------|
B |---0-1-3---1---4-0-4-3---3-|
G |-2---------------------3---|
D |---------------------------|
A |---------------------------|
E |---------------------------|

e |---------0---0-5-3-0---0-3-|
B |---0-1-3---1---------1-----|
G |-2-------------------------|
D |---------------------------|
A |---------------------------|
E |---------------------------|
Tap to rate this tab
# A B C D E F G H I J K L M N O P Q R S T U V W X Y Z