Song name
# A B C D E F G H I J K L M N O P Q R S T U V W X Y Z

Grizzly Bear - Fix It tab

Bass riff

G|------------------------------------|
D|------------------------------------|
A|------------------------------------|
E|-3s5-5-5-5--3s5-5-5--3s5-5-5--7s3-3-|

Guitar riff

e|-12--12--12--12--12----|
B|---15--15--15--15--15--|
G|-----------------------|
D|-----------------------|
A|-----------------------|
E|-----------------------|


Outro "just fix it for me"

Bass riff

G|-------------------------------------|
D|-------------------------------------|
A|-5-5-5-----------------------------5-|
E|--------5-5-5-5--3-3-3-3--3-3-3-3----|

Guitar riff

e|-----------------------------------------------------------------|
B|-----------------------------------------------------------------|
G|-11----11--11----11--9----9--9----9--7---7--7---7--7---7--7---7--|
D|----12--------12-------11------11------9------9------9------9----|
A|-----------------------------------------------------------------|
E|-----------------------------------------------------------------|
Tap to rate this tab
# A B C D E F G H I J K L M N O P Q R S T U V W X Y Z