Song name
# A B C D E F G H I J K L M N O P Q R S T U V W X Y Z

Grizzly Bear - Fragments tab

Grizzly Bear - Fragments - Sorry For The Delay EP.

0-------------|--------------|
--------------|0-------------|
----2---------|----2---------|
---------1----|---------1----|
--------------|--------------|
--------------|--------------| x2


4-------------|--------------|
--------------|2-------------|
----2---------|----2---------|
---------1----|---------1----|
--------------|--------------|
--------------|--------------| x2

Uhm... yeah I think that's about it for the whole song - it just repeats itself 
throughout - the whole thing's based around the basic E shape so it's stupidly easy to play, but 
sounds beautiful nonetheless. Enjoy ^^
Tap to rate this tab
# A B C D E F G H I J K L M N O P Q R S T U V W X Y Z