Song name
# A B C D E F G H I J K L M N O P Q R S T U V W X Y Z

Grizzly Bear - Deep Blue Sea tab

This is the ATP version and it's simplified mainly to bring out the chords. probably not 
mistakes but since there's nothing else out there...

Capo 3rd fret

e|---x--x--x----x-----x-------x-----------------------------------------------------|
B|---x--x--x----x-----7-------x-----------------------------------------------------|
G|---x--x--x----7-----6-------x-----------------------------------------------------|
D|---6--7--6----6-----4-------6-----------------------------------------------------|
A|---2--3--2----5-----4-------2-----------------------------------------------------|
E|---0--0--0----7-----5-------0-----------------------------------------------------|

e|------x--x--x--x--x--x----------x----x---x--------------------------------------------|
B|------7--x--7--x--7--9----------7----9---7--------------------------------------------|
G|------6--x--6--x--6--8----------6----8---6--------------------------------------------|
D|------4--6--4--6--4--6----------4----6---4--------------------------------------------|
A|------4--2--4--2--4--6----------4----6---4--------------------------------------------|
E|------5--0--5--0--5--7----------5----7---5--------------------------------------------|

e|---4---5----4---4------5-----------4---------------------------------------------|
B|---2---5----2---3------5-----------2---------------------------------------------|
G|---4---5----4---4------6-----------4---------------------------------------------|
D|---2---x----2---2------7-----------2---------------------------------------------|
A|---2---x----2---2------0-----------2---------------------------------------------|
E|---0---0----0---0------0-----------0---------------------------------------------|

e|-----5---4-----5---4---5---8-----------x-----x------x--x--|
B|-----4---2-----4---2---4---7-----------9-----7------9--7--|
G|-----5---4-----5---4---5---8-----------8-----6------8--6--|
D|-----4---2-----4---2---4---7-----------6-----4------6--4--|
A|-----0---2-----0---2---0---0-----------6-----4------6--4--|
E|-----0---0-----0---0---0---0-----------7-----5------7--5--|
Tap to rate this tab
# A B C D E F G H I J K L M N O P Q R S T U V W X Y Z