Song name
# A B C D E F G H I J K L M N O P Q R S T U V W X Y Z

Guess Who - These Eyes tab

------1-1-1-1-1-|
------1-1-1-1-1-|
------2-2-2-2-2-|  x2
----------------|
---5------------|
-5--------------|

----------------|
-----1-1-1-1-1--|
-----0-0-0-0-0--|
-----2-2-2-2-2--|
--3--3-3-3-3-3--|
3---------------|

----------------|
-----0-0-0-0-0--|
-----0-0-0-0-0--|
-----2-2-2-2-2--|
--3--3-3-3-3-3--|
3---------------|


Then the prechorus is something like this

---------------------------------------------|
------1-1-1-1-1-1-1-1-1-1-1-1-1-1-1-1--------|
------2-2-2-2-2-2-2-2-0-0-0-0-0-0-0-0--------|
------2-2-2-2-2-2-2-2-2-2-2-2-2-2-2-2--------|
----------------------3-3-3-3-3-3-3-3--------|
-8-7-----------------------------------------|

then right before the second verse (if you really need it) the violin part on guitar 
sound something like this

---------------|
10-13-12-9-8-5-|
---------------|
---------------|
---------------|
---------------|

go back to the first patterns then when you come back to the prechorus

-------------------------------------------|
----1-1-1-1-1-1-1-1-1-1-1-1-1-1-1-1--------|
----2-2-2-2-2-2-2-2-0-0-0-0-0-0-0-0--------| x3
----2-2-2-2-2-2-2-2-2-2-2-2-2-2-2-2--------|
--------------------3-3-3-3-3-3-3-3--------|
-------------------------------------------|

      Am               C                G               F
-----------------------------------3-3-3-3-3-3-3-3-1-1-1-1-1-1-1-1-|
--1-1-1-1-1-1-1-1-1-1-1-1-1-1-1-1--0-0-0-0-0-0-0-0-1-1-1-1-1-1-1-1-|
--2-2-2-2-2-2-2-2-0-0-0-0-0-0-0-0--0-0-0-0-0-0-0-0-2-2-2-2-2-2-2-2-|
--2-2-2-2-2-2-2-2-2-2-2-2-2-2-2-2--0-0-0-0-0-0-0-0-3-3-3-3-3-3-3-3-|
------------------3-3-3-3-3-3-3-3--2-2-2-2-2-2-2-2-3-3-3-3-3-3-3-3-|
-----------------------------------3-3-3-3-3-3-3-3-1-1-1-1-1-1-1-1-|

                          Stutter on the Am like how they do in the song
-1-1-1-1---------1-1-1-1---------1-1-1-1-------------|
-1-1-1-1-1-1-1-1-1-1-1-1-1-1-1-1-1-1-1-1-1-----------|
-2-2-2-2-0-0-0-0-2-2-2-2-0-0-0-0-2-2-2-2-2-----------|
-3-3-3-3-2-2-2-2-3-3-3-3-2-2-2-2-3-3-3-3-2-----------|
---------3-3-3-3---------3-3-3-3---------------------|
-----------------------------------------------------|
Tap to rate this tab
# A B C D E F G H I J K L M N O P Q R S T U V W X Y Z