Song name
# A B C D E F G H I J K L M N O P Q R S T U V W X Y Z

Gun - Better Days tab

 Gun
 Better Days
 Taking On The World (1989)

Tuning: EADGBE

DRUM INTRO

|--------------------------------------------|
|--------------------------------------------|
|-2-2-2------2-2-2------2-2-2----------------|
|-2-2-2------2-2-2------2-2-2----------------| x2
|-0-0-0-3h4--0-0-0-3h4--0-0-0-3h4------------|
|--------------------------------------------|


|-------------------------------------------------|
|-------------------------------------------------|
|-2-2-2------2-2-2------2-2-2--------22--44--6----|
|-2-2-2------2-2-2------2-2-2---------------------| x4
|-0-0-0-3h4--0-0-0-3h4--0-0-0-3h4--/4---5---7-----|
|-------------------------------------------------|

THERE IS A LITTLE BACKGROUND RIFF PLAYING UNDER THE LAST 4 BARS AND I WILL TAB THAT AS 
AS I FIGURE IT OUT.

For the verse just play the last little lick at the end of the lyric.

Cheers!
Tap to rate this tab
 
# A B C D E F G H I J K L M N O P Q R S T U V W X Y Z