Song name
# A B C D E F G H I J K L M N O P Q R S T U V W X Y Z

Gungor - Please Be My Strength tab

This is the way that I personally play the song; it sounds pretty much the
same I think. This is just to get an idea of how to play it since there are
no known tabs or chord charts at this time. To see it played like this here is a link.
http://www.youtube.com/watch?v=XEZAIULmRvs


Intro/Verse:
 Bm7         F#m      F#m         G
|-----------------------------------------|
|-3------3-------------------2----3-------|
|------4------4---2----3---3----------4---|
|----4-----4----4---4----4-----4----5---5-|
|-2---------------------------------------|
|-------------2--------2----------3-------|

  G             D D/C# A          Bm7
|--------------------------------------------------|
|--------3------3---0--2------2----3------3---3----|
|-4----6---------------2----2---2-----4-----4------|
|----5-----5--------------2-------------4----------|
|-------------5---4----0-----------2---------------|
|-3------------------------------------------------|

Chorus:
  G                       D
|------------------------------------0h2--2p0-----|
|--0-----0---------0------3------3------------3---|
|------0---0-0h2-----2p0-----2-----2------------2-|
|----0--------------------0----0---------0--------|
|-------------------------------------------------|
|--3--------3----3--------------------------------|

   F#m              Bm7
|-----------2--------------------0h2---2-0------|
|-------2-------2----------3---------------3----|
|-----3---3-------3------4---4------------------|
|---4---------4--------4-------4----------------|
|--------------------2---------------0----------|
|--2--------2-----------------------------------|
   G                    Gm6/E
|-----------------------------------0h2-2-0----0--|
|--------0--------0------3-----3------------3--3--|
|------0---0-0h2----2-0------3---3-------------2--|
|----0---------------------0-------------------0--|
|-------------------------------------------------|
|--3--------3---3--------0---------0---0----------|

No idea what the actual name of that funky chord is, but Gm6/E is as close as
it gets for my guess. Just play around with that last D chord on the chorus
to get back to the verses, didnt feel like writing it all out. For the
modulation just take everything up one half step.

Also, don't get discouraged to when it seems all crazy, its really not bad once you get 
the basics.
Tap to rate this tab
 
# A B C D E F G H I J K L M N O P Q R S T U V W X Y Z