Guitaretab - guitar tabs
Song name
# A B C D E F G H I J K L M N O P Q R S T U V W X Y Z

Guns N Roses - Since I Dont Have You tab

Since I Donít Have You
Gunís N Roses

Chords
   G  Am Cm D  Em
E|-3--0--x--2--0-|
B|-0--1--2--3--0-|
G|-0--2--0--2--0-|
D|-0--2--2--0--2-|
A|-2--0--3--x--2-|
E|-3--x--x--x--0-|

Intro:
e|---------------------------------------------------------|
B|------13b15---10br------10-----10h11p10------------------|
G|--------------------12-------------------8-7-------------|  x2
D|--12-----------------------------------------------------|
A|---------------------------------------------------------|
E|---------------------------------------------------------|
then
e|----14br--14--12h14p12-10--------------------------------|
B|----------------------------10br----10--10h11p10---------|
g|---------------------------------12---------------10-8---|
D|---------------------------------------------------------|
A|---------------------------------------------------------|
E|---------------------------------------------------------|

e|---------------------------------------|
B|---------------------------------------|
G|--/9-11-9--11--14--11--9---7------7h9--|
D|-----------------------------9---------|
A|---------------------------------------|
E|---------------------------------------|

G           Cm         D
I don't have plans and schemes,
    G          Cm          D
And I don't have hopes and dreams.
G          Cm
I don't have anything,
Am            D
Since I don't have you.
    G          Cm     D
And I don't have fond desires,
    G          Cm      D
and I don't have happy hours.
G          Cm
I don't have anything,
Am                 D
Since I don't have you.
D                D
Happiness, and I guess,
Am            G
I never will again.
Am
When you walked out on me,
G
In walked ol' misery,
Am                      D
And he's been here since then.

(Yeah, we're f****d!)

Solo:

[ Tab from: http://www.guitaretab.com/g/guns-n-roses/7613.html ]
e|-------------------------------------|--------------------------|
B|-------------------------------------|--------------------------|
G|-----19^-----------------------------|-----19^^-----------------|
D|---------21b--19-21--19h21p19p17\15~-|-----------21b--19-21-----|
A|--17---------------------------------|-17-----------------------|
E|-------------------------------------|--------------------------|

e|-------------------|--------------------------------------------|
B|-------------------|---19^^--19--17h19p17\15~-------------------|
G|-------------------|---------------------------17--15--19^^-----|
D|--19h21p19p17\15~--|--------------------------------------------|
A|-------------------|--------------------------------------------|
E|-------------------|--------------------------------------------|

e|-------------------|--------------------------------------------|
B|-------------------|--------------------------------------------|
G|--17h19p17p15\13~--|--------------------------------------------|
D|-------------------|----15--h17p15---15--17/19--21-21-21--------|
A|-------------------|--------------------------------------------|
E|-------------------|--------------------------------------------|

e|----------------------------------------------------------------|
B|----------------------------------------------------------------|
G|----------------------------------------------------------------|
D|---19-19-19---17b--15-------------------------------------------|
A|----------------------19--17------------------------------------|
E|----------------------------------------------------------------|

(Rhythym Guitar plays
G, Cm, D x2
G, Cm, Am, D 
In background)

G          Cm        D
I don't have love to share,
    G           Cm       D
And I don't have one who cares.
G          Cm
I don't have anything,
Am                 D
Since I don't have you.

G   Em  Am  D
You You You Naaahaa
G   Em  Am  D
You You You naaahaa



                        
Related for Since I Dont Have You tab