Song name
# A B C D E F G H I J K L M N O P Q R S T U V W X Y Z

Haim - Spirit Wind chords

Highlighted       Show chord diagrams
I'm sorry if something is wrong, i'm a begginer at this.

G
      
e|---3---|
B|---3---|
G|---0---|
D|---0---|
A|---2---|
E|---3---|

G

Change your heart
You suffer from the start
Change your mind
You suffer when you're kind

G

Well I fear the dark, I feel the light
I fear it all enough to put up a fight
I feel the water and I fear the rain
I fear it all enough but then it goes to waste


e|-----------------------------|
B|-----------------------------|
G|-----------------------------| 
D|-----------------------------|
A|-------------2-2--3-3--------|
E|---1-1--0-0------------------|

And then you go and I don't know but
I've seen it all before


e|--6------------3------------------------|
B|--8-8--6-------5-5--3-------------------|
G|--7------7-----4------4--4444--24242/2--|(2x)
D|--x------------x------------------------|
A|--x------------x------------------------|
E|--x------------x------------------------|
*(/   slide up)

G

Mend your mind
You're running out of time
Mend your heart
It's so hard when we're apart

G

Well I fear the dark, I feed the light
I feel it all enough to put up a fight
I feed the water and I fear the rain
I feel it all enough but then it goes to waste


e|-----------------------------|
B|-----------------------------|
G|-----------------------------| 
D|-----------------------------|
A|-------------2-2--3-3--------|
E|---1-1--0-0------------------|(2x)

And then you go and I don't know but
I've seen it all before
I said then you go and I don't know but
I've seen it all before

Fm                 Gm

I know there's a better way for me to say it
F#m                 Gm

I know there's a better way for me to say it
Fm                  Gm

I know there's a better way for me to say it
Em                                                 G  
                      
I know there's a better way for me to say it oh oh


e|--6------------3----------------------|
B|--8-8--6-------5-5--3-----------------|
G|--7------77----4------4--4444-24242/2-|(3x)
D|--x------------x----------------------|
A|--x------------x----------------------|
E|--x------------x----------------------|

e|--6------------3-----------------------|
B|--8-8--6-------5-5--3------------------|
G|--7------7-----4------4--44--24244-244-|
D|--x------------x-----------------------|
A|--x------------x-----------------------|
E|--x------------x-----------------------|

e|--3-6-3----------------------|
B|--5-8-5-----3-------3--------|
G|--4-7-4--44---02244---442----|(2x)
D|--x-x-x---------------------2|
A|--x-x-x---------------------2|
E|--x-x-x---------------------0|

e|---|
B|---|
G|---|
D|---|
A|2--|
E|--3|


G
Change your heart
You suffer from the start
Change your mind
You're running out of time

e|--3-6-3----------------------|
B|--5-8-5----33-------33-------|
G|--4-7-4--4----02244----442---|
D|--x-x-x---------------------2|
A|--x-x-x---------------------2|
E|--x-x-x---------------------0|(2x)



e|--3-6-8--9----999--11-----6--3-|
B|--5-8-10-11-----------88--8--5-|
G|--4-7-7--8----------------7--4-|
D|--x-x-x--x----------------x--x-|
A|--x-x-x--x----------------x--x-|
E|--x-x-x--x----------------x--x-|

e|--3-6-3----------------------|
B|--5-8-5----33-------33-------|
G|--4-7-4--4----02244----442---|
D|--x-x-x---------------------2|
A|--x-x-x---------------------2|
E|--x-x-x---------------------0|


End with Em

Tap to rate this tab
# A B C D E F G H I J K L M N O P Q R S T U V W X Y Z