Song name
# A B C D E F G H I J K L M N O P Q R S T U V W X Y Z

Hakan Hellstrom - Valborg tab

-------------------------------------------------------------------------------
                             VALBORG - HÅkan Hellström
-------------------------------------------------------------------------------

Tabbed by: AndreasSteele
E-mail: 
Tuning: Standard

Blev frustrerad att ingen plankat introt eller korrekt. Håll till godo!

Intro

         D7          Gadd9                 Cmaj9            

e|-------5--5-5-5/7--5--3-3-2-2h3p2--------5--3-3-2-3-3/5--------|
B|-------x-----------3--------------3------5---------------------|
G|-------5-----------4----------------2----4---------------------|
D|-------4-----------5------------------4--5---------------------|
A|-------5---------------------------------3---------------------|
E|---------------------------------------------------------------|


         Bm7                Am             D7

e|-------2--2-2-0---2-3--0--0-0----------------------------------|
B|-------3--------3------1------3-1-0-----------0-1-3-5-7--------|
G|-------2---------------2------------2----3--3------------------|
D|-------4---------------2--------------0--4--4------------------|
A|-------2---------------0-----------------5--5------------------|
E|---------------------------------------------------------------|


         D7                Bm7  Dsus Am   Am6  Bm7  Bm7* Am       

e|-------5--5-5-(5)-2-0----0--2----3----0----0h2---------0-------|
B|-------x--------------3--3----3----1----1----2----4----1-------|
G|-------5-----------------2----2----2----2----3----3----2-------|
D|-------4-----------------4----0----2----2----4----4----2-------|
A|-------5-----------------2---------0----0----2----2----0-------|
E|---------------------------------------------------------------|


G            Bm7     C
Änglarna har åkt på pisk
            D        G
Gårdarna är grönsvarta
         Bm7      C                       D
Och i Azalea kan man inte undgå att bli kär
C              D                       G
Där går en som svär att allt du gör är gott
D/F#  Em         C               D
Mhm, Ja jag är din om du vill ha en idiot
                C            D                    G   G/A G/B G/C  D D/C D/B D/A
Lägg din hand i min, mm mhm mhm, lägg din hand i min


G                   Bm7    C
Har ingen plats att kalla hem
        D
I detta pissiga vårregn
G               Bm7                C              D
Ett förortsgäng kapar en spårvagn hem i vårkvällen
C           D          G 
Provsmakar livets heroin
D/F#    Em         C               D
Mhm och om du någonsin vill ha en idiot
                  C           D                   G   G/A G/B G/C  D D/C D/B D/A
Lägg din hand i min, mm mhm mhm, lägg din hand i min


C                G                Bm7
Du kanske aldrig når dit du vill nå
           C D
men du når mig
Em                 Bm7             C
Du kanske aldrig får den du vill få
G   G/A G/B G/C  D D/C D/B D/A  D D/C D/B D/A  G
men du får mig

Outro:
|G   |Bm7  |C   |D   |
|G   |Bm7  |C   |D   |
|C   |G   |Bm7  |C D |
|Em  |Bm7  |C   |D D/C D/B D/A  D D/C D/B D/A  G




************************************

| /   slide up
| \   slide down
| h   hammer-on
| p   pull-off
| ~   vibrato
| +   harmonic
| x   Mute note
| b   Bend
| pb  Pre-bend
| br  Bend release
| pbr Pre-bend release
| brb Bend release bend

************************************
Tap to rate this tab
# A B C D E F G H I J K L M N O P Q R S T U V W X Y Z