Song name
# A B C D E F G H I J K L M N O P Q R S T U V W X Y Z

Hakan Hellstrom - Valborg chords

Highlighted       Show chord diagrams
Tablaturad av LiquidPanda
Titel: Valborg - Håkan Hellström
Album: Det kommer aldrig vara över för mig
Längd: 3:18
Tuning: Standard

Intro:
        D7          Gadd9                 Cmaj9            

e|-------5--5-5-5/7--5--3-3-2-2h3p2--------5--3-3-2-3-3/5--------|
B|-------x-----------3--------------3------5---------------------|
G|-------5-----------4----------------2----4---------------------|
D|-------4-----------5------------------4--5---------------------|
A|-------5---------------------------------3---------------------|
E|---------------------------------------------------------------|


         Bm7                Am             D7

e|-------2--2-2-0---2-3--0--0-0------------3--3------------------|
B|-------3--------3------1------3-1-0------1--1-0-1-3-5-7--------|
G|-------2---------------2------------2----3--3------------------|
D|-------4---------------2--------------0------------------------|
A|-------2---------------0---------------------------------------|
E|---------------------------------------------------------------|


         D7                Bm7       Am        Bm7       Am       

e|-------5--5-5-(5)-2-0----2-------3-0-------2-2-------0-0-------|
B|-------x--------------3--3---------1---------2---------1-------|
G|-------5-----------------2---------2---------3---------2-------|
D|-------4-----------------4---------2---------4---------2-------|
A|-------5-----------------2---------0---------2---------0-------|
E|---------------------------------------------------------------|


G            Bm7     C
Änglarna har åkt på pisk
            D        G
Gårdarna är grönsvarta
         Bm7      C                       D
Och i Azalea kan man inte undgå att bli kär
C              D                       G
Där går en som svär att allt du gör är gott
D/F#    Em     (D)     C               D
Mhm, ja jag är din om du vill ha en idiot
                C            D                    G    D
Lägg din hand i min, mm mhm mhm, lägg din hand i min

G                   Bm7    C
Har ingen plats att kalla hem
        D
I detta pissiga vårregn
G               Bm7                C            D
Ett förortsgäng kapar en spårvagn hem i vårkvällen
C           D          G   
Provsmakar livets heroin
D/F#     Em    (D)    C               D
Mhm, Och om du någonsin vill ha en idiot
                 C           D                    G    D
Lägg din hand i min, mm mhm mhm, lägg din hand i min

C                G                Bm7
Du kanske aldrig når dit du vill nå
           C D
men du når mig
Em                Bm7             C
Du kanske aldrig får den du vill få
        D   G       
men du får mig

Outro:
|G   |Bm7 |C   |D   |
|G   |Bm7 |C   |D   |
|C   |G   |Bm7 |C D |
|Em  |Bm7 |C   |D   |D   |

|Em  |Bm7 |C   |D  |
|Em  |Bm7 |C   |D  | 
|Em  |Bm7 |C   |D  | 

************************************

| /   slide up
| \   slide down
| H   hammer-on
| p   pull-off
| ~   vibrato
| +   harmonic
| x   Mute note
| b   Bend
| pb  Pre-bend
| br  Bend release
| pbr Pre-bend release
| brb Bend release bend

************************************
Tap to rate this tab
# A B C D E F G H I J K L M N O P Q R S T U V W X Y Z