Song name
# A B C D E F G H I J K L M N O P Q R S T U V W X Y Z

Half Moon Run - Fire Escape tab

-------------------------------------------------------------------------------
                             Fire Escape - Half Moon Run
-------------------------------------------------------------------------------
http://halfmoonrun.bandcamp.com/
http://halfmoonrun.indica.mu/en/

Tabbed by: Asmus
E-mail: asmusgregersen (at) gmail.com
Fell fre to e-mail me with corrections :)

Tuning: Standard

Intro and verse:
Note: during the verse the second chord is hold for the whole measure every second 
time. So no "14" on the d sting there. 

  Am                                     C
e|-----12----12----12----12----12----12-|-----12----12----12----12----12----12-|
b|---13----13----13----13----13----13---|---13----13----13----13----13----13---|
g|-14----14----14----14----14----14-----|-12----12----12----12----------12-----|
d|--------------------------------------|-------------------------14-----------|
a|--------------------------------------|--------------------------------------|
e|--------------------------------------|--------------------------------------|

Chorus:

  Am                                     C                   G
e|-----12----12----12----12----12----12-|--------------------------------------|
b|---13----13----13----13----13----13---|------8-----8-----8----12----12----12-|
g|-14----14----14----14----14----14-----|----9-----9-----9----12----12----12---|
d|--------------------------------------|-10----10----10----12----12----12-----|
a|--------------------------------------|--------------------------------------|
e|--------------------------------------|--------------------------------------|

  C                                      E (nice with af seventh - E7)
e|--------------------------------------|--------------------------------------|
e|------8-----8-----8-----8-----8-----8-|-----9-----9-----9-----9-----9-----9--|
g|-----9-----9-----9-----9-----9-----9--|---9-----9-----9-----9-----9-----9----|
e|12/10----10----10----10----10----10---|-9-----9-----9-----9-----9-----9------|
a|--------------------------------------|--------------------------------------|
e|--------------------------------------|--------------------------------------|


************************************

| /   slide up
| \   slide down
| h   hammer-on
| p   pull-off
| ~   vibrato
| +   harmonic
| x   Mute note
| b   Bend
| pb  Pre-bend
| br  Bend release
| pbr Pre-bend release
| brb Bend release bend

************************************
Tap to rate this tab
 
# A B C D E F G H I J K L M N O P Q R S T U V W X Y Z