Half Moon Run - Give Up tab

-------------------------------------------------------------------------------
                            Give Up - Half Moon Run
-------------------------------------------------------------------------------
Tabbed by: Daniel Everland
E-mail: danieleverland@gmail.com

Tuning: Standard - EADGBe

Song Structure
--------
Intro
Verse x4
Chorus A x6
Chorus B x2
Verse x4
Chorus A x4
Chorus B x2
Outro

Intro
--------
e|---------------------------------------------------------------------------|
B|---------------------------------------------------------------------------|
G|----3-------3---------3----------2-------2---------2-----------------------|
D|--------0-------0--------------------0-------0-----------------------------|
A|---------------------------------------------------------------------------|
E|--3---3---3---3---3------------2---2---2---2---2---------------------------|

e|---------------------------------------------------------------------------|
B|---------------------------------------------------------------------------|
G|----5-------5---------5----------7-------7----5----------------------------|
D|--------0-------0--------------------0-------------------------------------|
A|------------------------------------------------5--------------------------|
E|--5---5---5---5---5------------6---6---6---6-------6-----------------------|

e|---------------------------------------------------------------------------|
B|---------------------------------------------------------------------------|
G|----3-------3---------3----------2-------2---------2-----------------------|
D|--------0-------0--------------------0-------0-----------------------------|
A|---------------------------------------------------------------------------|
E|--3---3---3---3---3------------2---2---2---2---2---------------------------|

e|---------------------------------------------------------------------------|
B|---------------------------------------------------------------------------|
G|----5-------5---------5----------7-------7---------------------------------|
D|--------0-------0--------------------0-------0-----------------------------|
A|---------------------------------------------------------------------------|
E|--5---5---5---5---5------------6---6---6---6---6---------------------------|


Verse
--------
e|---------------------------------------------------------------------------|
B|---------------------------------------------------------------------------|
G|----3-------3---------3----------2-------2---------2-----------------------|
D|--------0-------0--------------------0-------0-----------------------------|
A|---------------------------------------------------------------------------|
E|--3---3---3---3---3------------2---2---2---2---2---------------------------|

e|---------------------------------------------------------------------------|
B|---------------------------------------------------------------------------|
G|----5-------5---------5----------7-------7---------7-----------------------|
D|--------0-------0--------------------0-------0-----------------------------|
A|---------------------------------------------------------------------------|
E|--5---5---5---5---5------------6---6---6---6---6---------------------------|

Pre-Chorus
--------
Same as verse, but ends with this
e|---------------------------------------------------------------------------|
B|-----------------------------------6-6---5---------------------------------|
G|----5-------5---------5---5------------------------------------------------|
D|--------0-------0-------------0--------------------------------------------|
A|--------------------------------------3------------------------------------|
E|--5---5---5---5---5-----5---5---5------------------------------------------|

Chorus A
--------
e|---------------------------------------------------------------------------|
B|---------------------------------------------------------------------------|
G|----7-------7---------7----------2-------2---------2-----------------------|
D|--------0-------0--------------------0-------0-----------------------------|
A|---------------------------------------------------------------------------|
E|--6---6---6---6---6------------1---1---1---1---1---------------------------|

e|---------------------------------------------------------------------------|
B|---------------------------------------------------------------------------|
G|----3-------3---------3---3-------3--------5-------------------------------|
D|--------0-------0-------------0-------0------------------------------------|
A|---------------------------------------------------------------------------|
E|--2---2---2---2---2-----2---2---2---2----5---------------------------------|

Chorus B
--------
e|---------------------------------------------------------------------------|
B|---------------------------------------------------------------------------|
G|----7-------7---------7-----------10---------10---------10-----------------|
D|--------0-------0-----------------------0----------0-----------------------|
A|---------------------------------------------------------------------------|
E|--6---6---6---6---6------------10----10---10----10---10--------------------|

e|---------------------------------------------------------------------------|
B|----10-------10---------10---10-------10---------10------------------------|
G|---------------------------------------------------------------------------|
D|---------0--------0---------------0--------0-------------------------------|
A|--7----7---7----7---7------7----7---7----7---7-----------------------------|
E|---------------------------------------------------------------------------|

Outro
--------
There really isn't an outro per-say, it's just the last bar that's played a bit differently.
Instead of fingerpicking it, you just play the chords.
  A#aug         Ddim         Dm
e|-------------------------------|
B|---------------------------10--|
G|--7------------10--------------|
D|--0------------0-----------0---|
A|---------------------------8---|
E|--6------------10--------------|
Tap to rate this tab
 
# A B C D E F G H I J K L M N O P Q R S T U V W X Y Z