Song name
# A B C D E F G H I J K L M N O P Q R S T U V W X Y Z

Halo - Halo 3 Theme tab

                 ↓- †Halo 3 Theme SOng† -↓
                         By: Joeyy                    (This is My first tab)
                       ҉  Ŕ£PŔ£§£ŅT ҉                Hope you 
liked it
____________________________________________________________________________
E---------------------------------------------------------| *Intro*
B---------------------------------------------------------|
G-0/9-9-11-12-14--14h17--13h16--12h15-18\0----------------|
D---------------------------------------------------------|
A---------------------------------------------------------|
E---------------------------------------------------------|
____________________________________________________________________________
E---------------------------------------------------------|*Middle Part*
B---------------------------------------------------------| (Repeat 2x)
G------9-------11------12-------14-14-12-11---------------|
D------|-------|-------|--------|--|--|--|----------------|
A-222--7--222--9--222--10--222--12-12-10-9----------------|
E-000-----000-----000------000----------------------------|
____________________________________________________________________________
E---------------------------------------------------------|*SolO Part*
B-3-6-5-6>(4times)-5-8-7-8>(4times)-888/0-----------------|
G---------------------------------------------------------|
D---------------------------------------------------------|
A---------------------------------------------------------|
E---------------------------------------------------------|
____________________________________________________________________________
E---------------------------------------------------------|*Aftrer Solo*
B---------------------------------------------------------|(Repeat Twice)
G------99999-------eleventh F.-Twelveth F.----14-14-12-11-|
D------|||||-------|||||-------|||||----------|--|--|--|--|
A-222--77777--222--99999--222--Tenth F.--222--12-12-10-9--|
E-000---------000---------000------------000--------------|
____________________________________________________________________________
E---------------------------------------------------------|*Ending Part*
B--2-3-3-0------------------------------------------------|
G-3---2---------0-2---------------------------------------|
D------------0-2----4-2-5-4-2--4--------------------------|
A-----------2-----------------5--5-5/7-9\0----------------|
E---------------------------------------------------------|

(/)=Slide down
(\)=Slide up
(|)=Pad
(F.)=Fret           ҉ If You love Halo Like I do Then 5*star this Video ҉
Tap to rate this tab
# A B C D E F G H I J K L M N O P Q R S T U V W X Y Z