Song name
# A B C D E F G H I J K L M N O P Q R S T U V W X Y Z

Halo - Halo Theme tab

e------------------------------------------------------------------|
B----2--3--2--2-0--------------------------------------------------|
G--4--------2-------------0--2------0------------------------------|
D-------------------0---2------4--2---4--2-4----------9------------|
A-----------------2--------------------------5---7-----------------|
E------------------------------------------------------------------|

e---------------------------------------------------------------|
B---------------------------------------------------------------|
G-----------------------------------2---------------------------|
D------------------2------4---5--4-------5---4--------2---------|
A---------------------------------------------------------------|
E---------------------------------------------------------------| 

e-------------------------------------------------------------------|
B-------------------------------------------------------------------|
G-------------------------------------------------------------------|
D-------------------------------------------------------------------|
A----7---9---10---12---12-10-9--------------------------------------|(x3)
E-000-000-000--000--000---------------------------------------------|

e----------------------------------------------------------|
B----------------------------------------------------------|
G----------------------------------------------------------|
D----------------------------------------------------------|
A--777--999-10-10-10--12-12-10-9---------------------------|(x2)
E----------------------------------------------------------|

e------------------------------------------------------|
B------------------------------------------------------|
G-----4----6----7----9----9-9--5--4--------------------|
D-----2----4----5----7----7-7--7--7--------------------|(x3)
A------------------------------------------------------|
E-000---000--000--000--000-----------------------------|

e------------------------------------------------------------------|
B----2--3--2--2-0--------------------------------------------------|
G--4--------2-------------0--2------0------------------------------|
D-------------------0---2------4--2---4--2-4----------9------------|
A-----------------2--------------------------5---7-----------------|
E------------------------------------------------------------------|



Tap to rate this tab
# A B C D E F G H I J K L M N O P Q R S T U V W X Y Z