Song name
# A B C D E F G H I J K L M N O P Q R S T U V W X Y Z

Halo - Halo Theme tab

e-----------------------|---------------|----------------------------------|
b-----------------------|---2-3-2---2---|----------------------------------|
g------------2----------|-4-------2---4-|-------0-2----------0-------------|
d-2----4-5-4---5-4----2-|---------------|---0-2-----4------2---4-2-4-0---2-|
a-----------------------|---------------|-2--------------------------------|
e-----------------------|---------------|----------------------------------|

e----------------------------------------------------------------------|
b----------------------------------------------------------------------|
g----------------------------------------------------------------------| x2
d----------------------------------------------------------------------|
a-------7-------------9-------------10-----------12--------12---12-10-9|
e-0-0-0---------0-0-0---------0-0-0--------0-0-0---------0----0--------|


e----------------------------------------------------------------------|
b----------------------------------------------------------------------|
g----------------------------------------------------------------------| x2
d-------9-------------11------------12-----------14--------------------|
a-------7-------------9-------------10-----------12--------12---12-10-9|
e-0-0-0---------0-0-0---------0-0-0--------0-0-0---------0----0--------|

e-----------------------------------------------------------------------|
b-----------------------------------------------------------------------|
g-----------------------------------------------------------------------|
d-----------------------------------------------------------------------|
a-------7--------10-9-7-------9---------12-10-9-------10--------12-10-9-|
e-0-0-0----0-0-0--------0-0-0-----0-0-0---------0-0-0-----0-0-0---------|

e-----------------------------|
b-----------------------------|
g-----------------------------|
d-----------------------------| x2
a-------12--------12---12-10-9|
e-0-0-0---------0----0--------|

e-----------------------------------------|
b-----------------------------------------|
g-----------------------------------------|
d-----------------------------------------|
a------7--------9--------10--------12-10-9|
e0-0-0----0-0-0----0-0-0-----0-0-0--------|


FIRST TAB, RATE GOOD!!!
Tap to rate this tab
 
# A B C D E F G H I J K L M N O P Q R S T U V W X Y Z