Song name
# A B C D E F G H I J K L M N O P Q R S T U V W X Y Z

Hank Marvin - Sacha tab

Help us improve GuitareTab! Take a short survey!
Right, this is my first tab that i've submitted to ultimate guitar.
This is the whole song apart from the end solo.
If anyone can help me, or has his own version, message me, and i'll put it up 
with a mention of you.
Any Feedback would be greatly appreciated


Key:     / Slide Note
         b Bend note
         ~ hold note
         w whammy/ bend string repeatedly

Song: Sacha
Artist: Hank Marvin

MAIN MELODY

Play through twice:
e------------------------------------------------------------------------|
B--7~ ----10~ --10--12~ --7--9--10--9--7--5--7~ ----10~ --10--12~ --7--9~|
G----7----------------------------------------7--------------------------|
D------------------------------------------------------------------------|
A------------------------------------------------------------------------|
E------------------------------------------------------------------------|


e----------------------------------------------------------------------------|
B---9--10~ --5--7~ --8--7--5--7--8~ --3--5~ --6--5--3--5--6~ ----------------|
G---------------------------------------------------------5--9--7--5--7--9---|
D----------------------------------------------------------------------------|
A----------------------------------------------------------------------------|
E----------------------------------------------------------------------------|

FIRST SOLO


e--7~ --4-4-4-5-7-9-9b10b9-7~ --4-4-4-5-7-9-9b10b9-7~ -----------9--9--5-----|
B-----------------------------------------------------9-----------------7----|
G---------------------------------------------------------9--6---------------|
D----------------------------------------------------------------------------|
A----------------------------------------------------------------------------|
E----------------------------------------------------------------------------|

e--------------------------------12~ --9-9-9-10-12-14-14b15b14-12~ --9-9-9--|
B---------------------------------------------------------------------------|
G-----9~ --9--12/14--14--9~ ------------------------------------------------|
D--9------------------------------------------------------------------------|
A---------------------------------------------------------------------------|
E---------------------------------------------------------------------------|

e--10-12-14-14b15b14-12~ -------------14-14--10-------------------------------|
B-------------------------14--------------------12----------------------------|
G----------------------------14--11--------------------14~ --14--17-18-17-18--|
D---------------------------------------------------14------------------------|
A-----------------------------------------------------------------------------|
E-----------------------------------------------------------------------------|

e-------------------------------------------------------------------------|
B--17-14~ --14--12--14-14-14----------------------------------------------|
G----------------------------12w------------------------------------------|
D-------------------------------------------------------------------------|
A-------------------------------------------------------------------------|
E-------------------------------------------------------------------------|

Repeat Main Melody, Play through once

END SOLO/ OUTRO
Related for Sacha tab