Hans Zimmer - Pirates Of The Carribean Theme Tune tab

e|----------0-1-1-1-3-0-0---------------------------------------------------|
B|--1-3-3-3---3-------2--3-1-3----------------------------------------------|
G|2---2-------2-------2------2----------------------------------------------|
D|----0-------0-------2------0----------------------------------------------|
A|--------------------0-----------------------------------------------------|
E|--------------------------------------------------------------------------|

x2

e|5-6-5-5-5-5-3-3-1-0-1-0-3-------------------------------------------------|
B|6-6---------3-3-3-3-----2-------------------------------------------------|
G|7-7---------3-3-2-2-----0-------------------------------------------------|
D|0-0---------0-0-0-0-------------------------------------------------------|
A|--------------------------------------------------------------------------|
E|--------------------------------------------------------------------------|

e|5-6-5-5-9-3-3-1-0-1-0-3---------------------------------------------------|
B|6-6-------3-3-3-3-----2---------------------------------------------------|
G|7-7-------3-3-2-2-----0---------------------------------------------------|
D|0-0-------0-0-0-0---------------------------------------------------------|
A|--------------------------------------------------------------------------|
E|--------------------------------------------------------------------------|

e|----------0-1-1-1-3-0-0---------------------------------------------------|
B|--1-3-3-3---3-------2--3-1-3----------------------------------------------|
G|2---2-------2-------2------2----------------------------------------------|
D|----0-------0-------2------0----------------------------------------------|
A|--------------------0-----------------------------------------------------|
E|--------------------------------------------------------------------------|

x2

e|----------0-3-3-5-6-5-3-5---0-1-1-3-5---3-1-3-0---0-----------------------|
B|--1-3-3-3---3-----6-------3---3-------3---------3---1---------------------|
G|2---2-------3-----7-------2---2-------2-------------2---------------------|
D|----0-------0-----0-------0-----------0-----------------------------------|
A|--------------------------------------------------------------------------|
E|--------------------------------------------------------------------------|

i know this is not the whole song but it is the main bits and iam sure if you flip them
into the right order the whole song isn't that hard

sorry for any mistakes this was done by a 12yr old in 5 mins

sorry about the first and fourth lines of tab, they would not paste properly this was
the only sollution

hope it is helpfull
Tap to rate this tab
 
# A B C D E F G H I J K L M N O P Q R S T U V W X Y Z