Song name
# A B C D E F G H I J K L M N O P Q R S T U V W X Y Z

Hans Zimmer - Why Do We Fall tab

                 Why do we fall (Hans Zimmer)
                Dark Knight Rises Soundtrack



-----------------------------------------------------------------|
-----------------------------------------------------------------|
-----2----2--0---2---4-----------2---------------2-----0---------|
-----------------------------------------------------------------|
-----0----2~~~---3---5-----------0-0-0-0-0-0-0-0-2-2-2-2-2-2-2-2-|

------------------------------------------------------------------|
------------------------------------------------------------------|
-2---------------4----------------2-2-2-2-2-2-2-2-2-2-2-2-0-0-0-0-|
------------------------------------------------------------------|
-3-3-3-3-3-3-3-3-5-5-5-5-5-5-5-5--0-0-0-0-0-0-0-0-2-2-2-2-2-2-2-2-|
------------------------------------------------------------------|

---------------------------------|
---------------------------------|
-2-2-2-2-2-2-2-2-4-4-4-4-4-4-4-4-|
---------------------------------|
-3-3-3-3-3-3-3-3-5-5-5-5-5-5-5-5-|
---------------------------------|

---------------------------------|
---------------------------------|
-2-2-2-2-2-2-2-2-2-2-2-2-0-0-0-0-|
---------------------------------|
-0-0-0-0-0-0-0-0-2-2-2-2-2-2-2-2-|
---------------------------------|

--------------------------------------------------|
--------------------------------------------------|
-2-2-2-2-2-2-2-2-4-4-4-4-4-4-4-4-------2----------|
---------------------------------------2----------|
-3-3-3-3-3-3-3-3-5-5-5-5-5-5-5-5-------0----------|
--------------------------------------------------|
Tap to rate this tab
 
# A B C D E F G H I J K L M N O P Q R S T U V W X Y Z