Song name
# A B C D E F G H I J K L M N O P Q R S T U V W X Y Z

Hans Zimmer - Hoist The Colours tab

Help us improve GuitareTab! Take a short survey!
HOIST THE COLOURS
BY HANS ZIMMER

x = mute note
h = hammer on
p = pull off


The Bell is on the g-string, tenth fret.

The Boys Melody
E|-----------------------------------------------------------------|
B|-----------------------------------------------------------------|
G|-------------------------------------------10---10-10/12\10-9----|
D|---10--10-10-10--9-9-10--9-10------------------------------------|
A|-8-----------------------------8--------8------------------------|
E|-----------------------------------------------------------------|

E|-----------------------------------------------------------------|
B|-----------------------------------------------------------------|
G|----12--11-12--13-12--9---------12--13-12-------9-10~------------|
D|------------------------10-----------------10--------------------|
A|-10--------------------------------------------------------------|
E|-----------------------------------------------------------------|

The King and his men
Stole the Queen from her bed
and bound her in her boat
The Seas be ours, and by the powers
Where we will well roam.

Man Comes In
E|------------------------------------------|
B|------------------------------------------|
G|------------------------------------------|
D|------------------------------------------|
A|-8------8-------8--10-11--8-10------------|
E|-----8------8-----------------------------|
Yo, ho. All Hence. Hoist the Colours High.

Death-row Swells
E|------------------------------------------|
B|------------------------------------------|
G|-12---5---12--12-5-5----12--13-5---8-10---|
D|-x----x---x---x--x-x----x---x--x---x-x----|
A|-10---3---10--10-3-3----10--11-3---6-8----|
E|------------------------------------------|
Heave, ho. Thieves and beggars. Never shall we die.

Chorus
E|---------------------------------------------|
B|---------------------------------------------|
G|-10---5---10--10-5-5----10--10-13/12--10-12--|
D|-x----x---x---x--x-x----x---x--x--x---x--x---|
A|-8----3---8---8--3-3----8---8--11/10--8--10--|
E|---------------------------------------------|

E|---------------------------------------------|
B|---------------------------------------------|
G|-12---5---12--12-5-5----12--13-5---8-10------|
D|-x----x---x---x--x-x----x---x--x---x-x-------|
A|-10---3---10--10-3-3----10--11-3---6-8-------|
E|---------------------------------------------|
Yo, ho. All Together. Hoist the Colours High. 
Heave ho, thieves and beggars. Never shall we die.



And for fun, heres Elizabeth Singing the verse of the Song
E|--------------------------------------------------------------|
B|--------------------------------------------------------------|
G|-----------------------------------------------9--------------|
D|------------------------------------12-12---12----12-11-------|
A|-10-11---11-11--11-12--12p11----------------------------------|
E|-----------------------------10-------------------------------|

E|--------------------------------------------------------------|
B|--------------------------------------------------------------|
G|--------------------------------------------------------------|
D|----13---13-13---------13-13--13--------13--14-----10-12~-----|
A|-11------------11---11-----------11--11--------11-------------|
E|--------------------------------------------------------------|


E|--------------------------------------------------------------|
B|--------------------------------------------------------------|
G|--------------------------------------------------------------|
D|------------------------------------------12---14--13-12-11---|
A|-11-11---11-11-11---11-11-12--11-9----------------------------|
E|-----------------------------------10-------------------------|

E|--------------------------------------------------------------|
B|--------------------------(crosses----------------------------|
G|----------------------------under the-------------------------|
D|-13--13------13-14--14-------bridge)-----13--14-----10-12-----|
A|--------11-------------11-----------------------11------------|
E|--------------------------------------------------------------|

E|--------------------------------------------------------------------------------------|
B|--------------------------------------------------------------------------------------|
G|----------------------------------10-9--9---------------------------------------------|
D|-12--------12--12---------12--12-------------14-------14--14--------14--15-----10--12-|
A|------11----------11-11--------------------------12----------12-12---------12---------|
E|--------------------------------------------------------------------------------------|

Some men have died
and some are alive
and others sail on the sea
with the keys to the cage
and the Devil to pay
we lay to Fiddler's Green

The bell has been raised
from it's watery grave
Do you hear it's sepulchral tone?
We are a call to all,
pay heed the squall
and turn your sail toward home

Yo, ho, haul together,
hoist the colors high.
Heave ho, thieves and beggars,
never shall we die."

And there ya go.

*Please Rate*
Related for Hoist The Colours tab