Song name
# A B C D E F G H I J K L M N O P Q R S T U V W X Y Z

Harlem Yu - Qing Fei De Yi tab

e|----------------------------------------------7-8-10-12-10-8-7-8-----|
B|-----------------8-------------------6-8-10-8------------------------|
G|---------5h7-7/9---9\7-5-4-5-7-5-7-9---------------------------------|
D|-----5h7-------------------------------------------------------------|
A|---------------------------------------------------------------------|
E|---------------------------------------------------------------------|

e|----------------------------------------------7-8-10-12-10-8-7-8-----|
B|-----------------8-------------------6-8-10-8------------------------|
G|---------5h7-7/9---9\7-5-4-5-7-5-7-9---------------------------------|
D|-----5h7-------------------------------------------------------------|
A|---------------------------------------------------------------------|
E|---------------------------------------------------------------------|
Tap to rate this tab
 
# A B C D E F G H I J K L M N O P Q R S T U V W X Y Z