Song name
# A B C D E F G H I J K L M N O P Q R S T U V W X Y Z

Harry Gregson-williams - Old Snake tab

Old Snake
Harry Gregson-Williams
Metal Gear Solid 4: Guns of the Patriots

Tabbed by: Chips-
Email: petri.lindholm@jippii.fi

Tuning: EADGBe

0:52
e|---13-------------------16--13--13h14-------------------|
B|--------11------11-11/13--------------------------------|
G|--------------------------------------------------------|
D|--------------------------------------------------------|
A|--------------------------------------------------------|
E|--------------------------------------------------------|
1:04
e|---14-----------11-11--14--11--11h13--------------------|
B|--------13----------------------------------------------|
G|--------------------------------------------------------|
D|--------------------------------------------------------|
A|--------------------------------------------------------|
E|--------------------------------------------------------|
1:23
e|---13-------------------16--13--13h14-------------------|
B|--------11------11-11/13--------------------------------|
G|--------------------------------------------------------|
D|--------------------------------------------------------|
A|--------------------------------------------------------|
E|--------------------------------------------------------|
1:35
e|---14-----------11-11--14--11--11h13--------------------|
B|--------13-----------------------------------14p13p11---|
G|--------------------------------------------------------|
D|--------------------------------------------------------|
A|--------------------------------------------------------|
E|--------------------------------------------------------|
3:22
e|---13-------------------16--13--13h14-------------------|
B|--------11------11-11/13--------------------------------|
G|--------------------------------------------------------|
D|--------------------------------------------------------|
A|--------------------------------------------------------|
E|--------------------------------------------------------|
3:34
e|---14-----------11-11--14--11--11h13--------------------|
B|--------13----------------------------------------------|
G|--------------------------------------------------------|
D|--------------------------------------------------------|
A|--------------------------------------------------------|
E|--------------------------------------------------------|




| /  slide up
| \  slide down
| h  hammer-on
| p  pull-off
| ~  vibrato
| +  harmonic
| x  Mute note
Tap to rate this tab
# A B C D E F G H I J K L M N O P Q R S T U V W X Y Z