Song name
# A B C D E F G H I J K L M N O P Q R S T U V W X Y Z

Haste The Day - American Love tab

-------------------------------------------------------------------------------
			     AMERICAN LOVE - Haste The Day
-------------------------------------------------------------------------------
Tabbed by: Addy713
Email: firelink713@hotmail.com

Copyrights: This Song belongs to Haste The Day, I'm just a person trying to tab their 
I do not own anything apart of Haste The Day (If i did I'd keep Jimmy as singer, But 
cool too...)

Tuning: Drop C (C G C F A D) (Drop D sounds fine but Drop C is proper)


Legend:

| /  slide up
| \  slide down
| h  hammer-on
| p  pull-off
| b  bend
| ~  vibrato
| +  harmonic
| x  mute note
| P  Palm Mute This Note (Will be found underneath the note)
| *^* Clean Channel - If it ain't in this, then leave it on distortion


I Do Believe this is correct, Might be missing a palm mute here and there but i 
its 99.9% Accurate. Any problems? Email me. Thanks


From 0:00 - 0:32

D|---------------------------------------------------------------------------|
A|---------------------------------------------------------------------------|
F|---------------------------------------------------------------------------|
C|-----------------------3---2------2/3--------------------------------------|
G|------3/5------3/5-----5---4------4/5--------------------------------------|
C|-0-0-------0--------0----0----0--------------------------------------------|

   P P       P        P    P    P

Lyrics:

Exchanging Beauty, for the ashes
Given my heart to, nothing real
Exchanging beauty, for the ashes
Given my heart to, nothing real!

From: 0:33 - 1:09 (possibly 1:10 depending on your timing)

D|---------------------------------------------------------------------------|
A|---------------------------------------------------------------------------|
F|---------------------------------------------------------------------------|
C|---------------------------------------------------------------------------|
G|-----------5\3---3\2---2/3------------5\3---3\2---2/8----------------------|
C|-0-0-0-0-------0-----0------0-0-0-0-------0-----0--------------------------|
                 P     P                    P     P

Lyrics:

I've given my heart away, to so many things
So many times, I failed
Help me stop, this endless CYCLE!
Remind me of how it, CAN BE!!!

From 1:10 - 1:28 (You'll hear the change for the next part)

D|----------------------------------------------------------------------------------|
A|----------------------------------------------------------------------------------|
F|----------------------------------------------------------------------------------|
C|--------------------------------------------------------------------7----7--8--7--|
G|------10---8-----7---8---7---7-8-7-------10-----8--------7-----8------------------|
C|--0-0----0----0----0---0---0--------0-0------0-----0-0------0----0-----0----------|

D|----------------------------------------------------------------------------------------------|
A|----------------------------------------------------------------------------------------------|
F|------------------------------------------------------------------------------------7-----9---|
C|--------------------------------------------------------------------7-----8----10-------------|
G|-------10-----8-----7----8----7-----7--8--7--------10------8----------------------------------|
C|--0-0------0-----0----0----0-----0------------0-0------0------0--0-----0-----0---------0------|


Lyrics: None at this time.

From: 1:29 - 2:19

*!*
D|---------------------------------------------------------------------------|
A|---------------------------------------------------------------------------|
F|---------------------------------------------------------------------------|
C|---------------------------------------------------------------------------|
G|--------------3---------------3---------------3----------------------------|
C|--0-0-0-0-0-0-3---0-0-0-0-0-0-3---0-0-0-0-0-0-3----------------------------|
*!*

*!* Attention: Play this part once (The one above) *!*

D|---------------------------------------------------------------------------|
A|---------------------------------------------------------------------------|
F|---------------------------------------------------------------------------|
C|---------------------------------------------------------------------------|
G|--------------3-----------------------3-----------------------3---5--------|
C|--0-0-0-0-0-0-3---0-0-0---0-0-0-0-0-0-3---0-0-0---0-0-0---0-0-3-0-5--------|

*!*
D|---------------------------------------------------------------------------|
A|---------------------------------------------------------------------------|
F|---------------------------------------------------------------------------|
C|---------------------------------------------------------------------------|
G|------3+----------------5+-------------------------------------------------|
C|--0-0---------------0-0----------------------------------------------------|
*!*

*!* Attention: This Part contains the harmonic pinches that are played, You will hear 
This is not apart of the song until you hear the harmonic pinches, So DON'T PLAY EM UNTIL! 
a nice play =P) *!*


Lyrics:

Take me back, I surrender all
Without You, MY HEART IS BROKEN!

*^* From: 2:20 - 4:04

D|---------------------------------------------------------------------------|
A|---------------------------------------------------------------------------|
F|-------------7-------------------------------------------------------------|
C|--------7-------7-----7----------------------------------------------------|
G|-----0----0--------0-------------------------------------------------------|
C|--0------------------------------------------------------------------------|

D|---------------------------------------------------------------------------|
A|---------------------------------------------------------------------------|
F|-------------7-------------------------------------------------------------|
C|--------7-------7-----7----------------------------------------------------|
G|-----5-----5-------5-------------------------------------------------------|
C|--5------------------------------------------------------------------------|

D|---------------------------------------------------------------------------|
A|---------------------------------------------------------------------------|
F|-------------7-------------------------------------------------------------|
C|--------7-------7-----7----------------------------------------------------|
G|-----4-----4-------4-------------------------------------------------------|
C|--4------------------------------------------------------------------------|

Play Each of these twice then repeat from the first one. (then Do it twice again, etc)


Lyrics:

First Singer: I never should have let you go, I never should Have let you slip through 
arms.

Second Singer: As the Sun sets tonight, I hold you with all that I am.

Both: I never should have let you go, promise me, you'll stay with me forever, forever.

From: 4:04 - 4:55

*!*
D|---------------------------------------------------------------------------|
A|---------------------------------------------------------------------------|
F|---------------------------------------------------------------------------|
C|---------------------------------------------------------------------------|
G|--------------------------------3b-----------------------------------------|
C|--0-0-0---0-0-0-0---0-0-0---0-0---5b---------------------------------------|
*!*

*!* Attention: Play this at first then play the rest as normal *!*

(Normal Riff)
D|---------------------------------------------------------------------------|
A|---------------------------------------------------------------------------|
F|---------------------------------------------------------------------------|
C|---------------------------------------------------------------------------|
G|------------------------------------------3-----5--------------------------|
C|--0-0-0---0-0-0-0---0-0-0---0-0-0---0-0-3-3---5-5--------------------------|

*^*
D|---------------------------------------------------------------------------|
A|---------------------------------------------------------------------------|
F|--------5------------------------------------------------------------------|
C|-----5----5----------------------------------------------------------------|
G|--3----------3-------------------------------------------------------------|
C|---------------------------------------------------------------------------|
*^*

*^* Play once Then return to the one above this one *^*

Ending Note:

*!*
D|---------------------------------------------------------------------------|
A|---------------------------------------------------------------------------|
F|----7----------------------------------------------------------------------|
C|----7----------------------------------------------------------------------|
G|----0----------------------------------------------------------------------|
C|----0----------------------------------------------------------------------|
*!*

*!* Attention: This is in clean channel, if not leave distortion on, depending on you 
your ear, then pick between the two and play *!*


Lyrics:

Forgive me, for running, so quickly, to the outside
Forgive me, for running, so quickly, to the outside!

(For Full lyrics visit lyrical websites that have this song. The Timing may be slightly 
but its very close, just use your judgment.)

And Again, I do not own this song or anything by haste the day... except a few t shirts 
=P) any problems just email me.

Have fun :D!
Tap to rate this tab
# A B C D E F G H I J K L M N O P Q R S T U V W X Y Z