Song name
# A B C D E F G H I J K L M N O P Q R S T U V W X Y Z

Haste The Day - Pressure The Hinges tab

Drop C(DAFCGC) 
   i'm only 13 so don't critisize me if this is a wrong tab but i think it's right.


               Palm mute= *
               bend=b 
               slide up to=/
               slide sown to=\       hopefully you know the timing.

0*-7--5--3--0----------------}
0*-7--5--3--0----------------}
0*-7--5--3--0---0--0---0-----}
----------------5--7---9b----}
-----------------------------}
-----------------------------}

---7--5--3--0--0*-0*-0*-------------0*-0*---}
---7--5--3--0--0*-0*-0*--3/5---5\3--0*-0*---}
---7--5--3--0------------5/7---7\5--0*-0*---}
--------------------------------------------}
--------------------------------------------}
--------------------------------------------}

0*-7--5--3--0----------------}
0*-7--5--3--0----------------}
0*-7--5--3--0---0--0---0-----}
----------------5--7---9b----}
-----------------------------}
-----------------------------}

---------------}
--1------------}
--3------x-12--}
---------------}
---------------}
---------------}

     REPEAT EVERYTHING UNTIL THIS PART COMES UP!!

----0---------------}
-----0--------------}
------0-------------}
-------7------------}
--------0-----6-5---}
---------5----------}

                                               x2
-0*--0*--0*--0--------------}
-0*--0*--0*--0--------------}
-0*--0*--0*--0--------------}
----------------------------}
---------------------6-5----}
----------------------------}


-5--------7----------------------}
-5--x12---7----------------------}
-5--------7----x12---------------}
----------9----------------------}
---------------------------------}
---------------------------------}
Tap to rate this tab
# A B C D E F G H I J K L M N O P Q R S T U V W X Y Z