Song name
# A B C D E F G H I J K L M N O P Q R S T U V W X Y Z

Hawthorne Heights - Boy tab

Boy:
Intro: Play each of these 4 times I didnt write them out 4 times because its too 
repetitve but you get the idea from this ( I wrote out the first two so play two more after the 
first two)

E-------------------------------------------------------------------------|
B--3--3---3--3---3--3---3--3-----1-0-1----1-0-1----1-0-1----1-0-1---------|
G---4------4-------4------------------------------------------------------|
D-5------5------4------4-------3--------3---------2--------2--------------|(x2)
A-------------------------------------------------------------------------|
D-------------------------------------------------------------------------|

Verse 1

----------------------------------------------------------------------------|
----------------------------------------------------------------------------|
---5~-----7~-----5~-----7~-----9-7-5-7~-------------------------------------|
---5~-----7~-----5~-----7~-----x-x-x-x~-------------------------------------|
---3~-----5~-----3~-----5~-----7-5-3-5~-------------------------------------|
----------------------------------------------------------------------------|

Chorus 1(Strumming is self explanatory)

----------------------------------------|
----------------------------------------|
------7-----5------7-----------/11-/12--|
5-----7-----5------7---(x2)----/x-/x----|(End with this the second time)
5-----5-----3------5-----------/9-/10---|
5---------------------------------------|


Repeat:
Intro
Verse
Chorus

Bridge:no guitar

Chorus 2(Altered)
2nd time it just does the 4 chords

------------------------------------------------------|
------------------------------------------------------|
------7-----5-----7-------9-7-5-7---------------------|
2-----7-----5-----7-------x-x-x-x--(First time)-------|
2-----5-----3-----5-------7-5-3-5---------------------|
2-----------------------------------------------------|

Repeat:
Chorus 1

End with:

Outro

-----------------------------------------------------------|
-----------------------------------------------------------|
-----------------------------------------------------------|
----5~-----------------------------------------------------|
----5~-----------------------------------------------------|
5~4~5~-----------------------------------------------------|
Tap to rate this tab
# A B C D E F G H I J K L M N O P Q R S T U V W X Y Z