Guitaretab - guitar tabs
Song name
# A B C D E F G H I J K L M N O P Q R S T U V W X Y Z

Headstones - Cemetery tab

  by the headstones

                            Cemetery


beggining starts off with drums and feedback from the guitar

E----------------------------------------------------- |
B----------------------------------------------------- |
G-----------------------------------------------------'|
D----x-x-x----x-x-x----x-x-x--------------------------'|
A----2-2-------2-2------2----------------------------- |
E----0-0-3----0-0-3----0-0-3-------------------------- |


chorus
[ Tab from: http://www.guitaretab.com/h/headstones/153957.html ]
E------------------------------------------------------ |
B------------------------------------------------------ |
G------------------------------------------------------'|
D-----------999999-777777-676767-----------------------'|
A----777777-777777-555555-454545----------------------- |
E----555555-------------------------------------------- |


bridge

E-------------------------------------------------------------------------|
B-------------------------------------------------------------------------|
G-------------------------------------------------------------7-7-9-9-0---|
D-------------2222222222-4444444444-------------------7-7-9-9---------0---|
A--5555555555-0000000000-2222222222-----------7-7-9-9-----------------0-2-|
E--3333333333-----------------------7-7-10-10-------------------------0-0-|


end... have any questions? e-mail me at chris_m622@hotmail.com
Related for Cemetery tab
×
Cemetery