Song name
# A B C D E F G H I J K L M N O P Q R S T U V W X Y Z

Hed P E - Renegade tab

Intro/Chorus Lead
D |---------------------------------------|
A |-----------------------------------4---|
F |-------------------------7-----7-----4-|
C |-3--4----5-4-3--4----5-4---4-----4-----|
G |---------------------------------------|
C |---------------------------------------|

Verse
|--------------------|
|--------------------|
|--------------------|
|--------------------|
|-2-2----3---3---3/5-|
|-0-0--0-1-0-1-0-1/3-|
  . .  . . . . .

I'm working on the bridges but here is this for now
Tap to rate this tab
 
# A B C D E F G H I J K L M N O P Q R S T U V W X Y Z