Song name
# A B C D E F G H I J K L M N O P Q R S T U V W X Y Z

Hed Pe - Represent tab

Artist: (hed) P.E.
Song: Represent
Album: Only In Amerika
Composer: Jahred & Jaxon
Tuning: Drop C

Main Riff
|------------------------|
|------------------------|
|------------------------|
|-3--1-1-1-1--3--1-1-1-1-|
|-3--1-1-1-1--3--1-1-1-1-|
|-3--1-1-1-1--3--1-1-1-1-|
     . . . .     . . . .

all my dogs..
|---------------------|
|---------------------|
|-------4~----5-5-5-5-|
|-2~----4~----5-5-5-5-|
|-2~----2~----3-3-3-3-|
|-2~------------------|

Verse
|---------------------------------|
|---------------------------------|
|---------------------------------|
|-3--1-0-1--------3--1-0-1--------|
|-3--1-0-1--------3--1-0-1--------|
|-3--1-0-1--------3--1-0-1--------|
     . . .           . . .

Solo
|-----------------------------------------|
|-----------------------------------------|
|-----------------------------------------|
|-2-2-5-2-2-5-2-2-2-5-2-2-5-2-2-5-2-2-2-5-|
|-----------------------------------------|
|-----------------------------------------|

|---------------------------------------|
|---------------------------------------|
|---------------------------------------|
|-2-2-5-2-2-5-2-2-2-5-2-2-7-7-2-2-2-2/9-|
|---------------------------------------|
|---------------------------------------|

|---------------------------------------------------------------|
|---------------------------------------------------------------|
|---------9-9-12-9-9-12-9-9-9-12---------9-9-12-9-9-12-9-9-9-12-|
|-9-9-9-9------------------------9-9-9-9------------------------|
|---------------------------------------------------------------|
|---------------------------------------------------------------|

|----------------------------------------------------------|
|----------------------------------------------------------|
|---------9-9-12-9-9-12-9-9-9-12-12-12-15-15-9-12-12-12----|
|-9-9-9-9-----------------------------------------------2~-|
|-------------------------------------------------------2~-|
|-------------------------------------------------------2~-|

the rest of the song coming soon
Tap to rate this tab
 
# A B C D E F G H I J K L M N O P Q R S T U V W X Y Z