Song name
# A B C D E F G H I J K L M N O P Q R S T U V W X Y Z

Hey Rosetta - Young Glass Acoustic chords

Highlighted       Show chord diagrams
-------------------------------------------------------------------------------
			    Young Glass - Hey Rosetta!
-------------------------------------------------------------------------------
Tabbed by: Cooganium

Tuning: standard, capo 2nd fret

Chords:                     ?
    C#m7  A    D    A5/E (C#m7/F#)  G    Em9    C#sus4/G#

e|---x----x----x----x-------x-------x-----x-------x-------------------------|
B|---x----x----x----x-------x-------x-----x-------x-------------------------|
G|---7----6----11---12------7-------4-----0-------4-------------------------|
D|---7----7----13---12------7-------5-----0-------2-------------------------|
A|---5----4----9----10------5-------2-----9-------2-------------------------|
E|---7----5----10---10------0-------3-----0-------2-------------------------|


Verse:  C#m7       A     D            A5/E    (A5/E...)


from under your sheets out into the hall

you sleepwalk through the rooms where you grew up

out through the porch and the old front doors

carried by words that you learned when you were small

down the stone steps and into the night

it's the boulevard and the hum of her hard lights

and when you open your eyes you're in central park

carried by the words that you learned when you woke up:



Chorus: 


C#m7/F#          G                   Em9        C#m7/F#       G
        even though - i thought i was - all alone - i was wrong
                Em9                  C#m7/F#     G          Em9
        even though - i thought i was - all alone - i am not



Verse: same chords

you can hurry home to mama and your house of doors

get the bolt in the hole and you can close all the windows

but keeping out the killers and keeping out the creeps

isn't keeping out the doubt and the disbelief

as they look for god in them ivory halls

you can see her on the porch, listening to the radio,

singing that wanderer's song:





F#m             A                    E         F#m           A
        even though - i thought i was - all alone - i was wrong
                E                    F#m         A           E
        even though - i thought i was - all alone - i am not
                F#m                  A           E           
        even though - i thought i was - i was wrong - i am not!!





Bridge Rundown:


           G - C#sus4/G# - C#m7/F# - A - C#m7 
i am not!




Outro:

C#m7             G                    D         C#m7           G                    E
        and even if - you're scared stiff - you can trust in this - you can trust in this 

************************************

| /   slide up
|  /   slide up
| \   slide down
| h   hammer-on
| p   pull-off
| ~   vibrato
| +   harmonic
| x   Mute note
| b   Bend
| pb  Pre-bend
| br  Bend release
| pbr Pre-bend release
| brb Bend release bend

************************************
Tap to rate this tab
 
# A B C D E F G H I J K L M N O P Q R S T U V W X Y Z