Song name
# A B C D E F G H I J K L M N O P Q R S T U V W X Y Z

Hey Rosetta - Yes Yes Yes tab

----------------------------------------------------------------------------
	              Yes! Yes! Yes! - Hey Rosetta!
----------------------------------------------------------------------------
Tabbed by: Andrew Maynard
Email: admaynar@ucalgary.ca

Tuning: Standard

Bass Intro
G|------------------------------------------|
D|-----------------------------------------o|
A|--2-2-5-4-----------------2-2-5-4--------o|
E|----------2/5-5--2/5-5--2---------2/5-5---|

Guitar Intro
e|--2--------2----------------2----------------2----------|
B|--3----3-----3---3------0-----0---0------0-----0--------|
G|--2------2-----2------2---2-----2------2---2-----2-2----|
D|--0-----------------------------------------------------|
A|--------------------------------------------------------|
E|--------------------------------------------------------|

e|--2--------2----------------2----------------2-----2-----2-----|
B|--3----3-----3---3------0-----0---0------0-----0-----0-----0---|
G|--2------2-----2------2---2-----2------2---2-----2-----2-----2-|
D|--0------------------------------------------------------------|
A|---------------------------------------------------------------|
E|---------------------------------------------------------------|

Verse Riff
e|-----------------------------|----------------------------------|
B|-----------------------------|----------------------------------|
G|-----------------------------|o--------------------------------o|Repeat
D|--9-9--12--11--4/7-7--4/7-7--|o--4/9-9--12--11--4/7-7--4/7-7---o|  3x
A|--9-9--12--11--4/7-7--4/7-7--|---4/9-9--12--11--4/7-7--4/7-7----|
E|--7-7--10--9---2/5-5--2/5-5--|---2/7-7--10--9---2/5-5--2/5-5----|

Pre-Chorus
  bm          E
  no, no, not again (my darling sleep)
  bm                  E (etc...)
  put your head on my legs (breathe it in)...

Chorus
  D               A                   c#m            f#m
  you've got this feeling you'll live to get what you give
  D            A       E
  you'll be an old man soon...

For the cool bass riff thing that follows the chorus just play a bm chord.
Then in the second verse the riff is palm-muted for the first few bars
and after that it's back to normal.

Interlude (acoustic)
e|------------5-5-5-5---4---4-4-4---2-2-2-2---|
B|--7-7-7-7---5-5-5-5---4h5-5-5-5---2-2-2-2---|
G|--7-7-7-7---6-6-6-6---4h6-6-6-6---2-2-2-2---|
D|--7-7-7-7---7-7-7-7---4h6-6-6-6---4-4-4-4---|
A|--5-5-5-5---7-7-7-7---4---4-4-4---4-4-4-4---|
E|------------5-5-5-5---------------2-2-2-4---|

And that's pretty much it! The outro is just a slight variation on the
verse riff that you should be able to figure out on your own. Listen to 
the song for the structure and strumming patterns and all that jazz.

And for more HR! go to www.heyrosetta.com!
============================================================================
Tap to rate this tab
# A B C D E F G H I J K L M N O P Q R S T U V W X Y Z