Song name
# A B C D E F G H I J K L M N O P Q R S T U V W X Y Z

Hi Standard - Turning Back tab

Band- Hi-Standard
Song- Turning Back
Album- Making the Road
Tabber- Ryan (Tunafish)

Standard Tuning (EBGDAe)

* - Strum

|-----------------------------------------------------------------------------|
|-----------------------------------------------------------------------------|
|-----4--4----------4*--4-----------4*--4---2*--2-------2-3-4*----------------|
|-2-4-4--4-6-2--2-4-4---4-6-2*--2-4-4---4-6-2---2-6-4*--2-3-4-----------------|
|-2-4-2--2-6-2--2-4-2---2-6-2---2-4-2---2-6-0---0-6-4---0-1-2-----------------|
|-0-2------4-0--0-2-------4-0---0-2-------4-------4-2-------------------------|

|-----------------------------------------------------------------------------|
|-----------------------------------------------------------------------------|
|-----4*--4-----------4*--4-----------4*--4---2*--2-------2-3-4*--------------|
|-2-4-4---4-6-2*--2-4-4---4-6-2*--2-4-4---4-6-2---2-6-4*--2-3-4---------------|
|-2-4-2---2-6-2---2-4-2---2-6-2---2-4-2---2-6-0---0-6-4---0-1-2---------------|
|-0-2-------4-0---0-2-------4-0---0-2-------4-------4-2-----------------------|

|-----------------------------------------------------------------------------|
|-----------------------------------------------------------------------------|
|-----4*--4-----------4*--4-----------4*--4---2*--2-------2-3-4---------------|
|-2-4-4---4-6-2*--2-4-4---4-6-2*--2-4-4---4-6-2---2-6-4*--2-3-4---------------|
|-2-4-2---2-6-2---2-4-2---2-6-2---2-4-2---2-6-0---0-6-4---0-1-2---------------|
|-0-2-------4-0---0-2-------4-0---0-2-------4-------4-2-----------------------|

i used a midi file in guitar pro 3 and figured out all the power chords for this
song so the credit should be given to the guy who made the midi file. i got the
midi from members.fortunecity.com/bavtopine/#hi_standard

corrections, comments - what_smells66@hotmail.com
Tap to rate this tab
# A B C D E F G H I J K L M N O P Q R S T U V W X Y Z