Song name
# A B C D E F G H I J K L M N O P Q R S T U V W X Y Z

Hi-standard - Asian Pride tab

Song: Asian Pride
Band: HI-STANDARD
Album: Short Music for Short People
Written and Performed By: HI-STANDARD
Tabbed By: ultimatelefty

This is a funny song, pretty simple to play! Please rate, comment,
and enjoy!



e|---------------------------|
B|-4-5-7-7-7-5-4-5-4---------|
G|-------------------4-4-3-4-|
D|---------------------------|
A|---------------------------|
E|---------------------------|

e|-------------------------------------------------------|
B|-------------------------------------------------------|
G|-4-4-4-4---------4-4-4-4-9-9-9-9-4-4-4-4---------4---4-|
D|-4-4-4-4-4-4-4-4-4-4-4-4-9-9-9-9-4-4-4-4-4-4-4-4-4-4-4-|
A|-2-2-2-2-4-4-4-4-2-2-2-2-7-7-7-7-2-2-2-2-4-4-4-4-2-4-2-|
E|---------2-2-2-2-------------------------2-2-2-2---2---|x2

e|---------------------------------------------------------|
B|---------------------------------------------------------|
G|---------8-8-8-8-9-9-9-9-----------------8-8-8-8-9-9-9-9-|
D|-6-6-6-6-8-8-8-8-9-9-9-9-9-9-8-8-6-6-6-6-8-8-8-8-9-9-9-9-|
A|-6-6-6-6-6-6-6-6-7-7-7-7-9-9-8-8-6-6-6-6-6-6-6-6-7-7-7-7-|
E|-4-4-4-4-----------------7-7-6-6-4-4-4-4-----------------|

e|--------------------------|
B|--------------------------|
G|-111111111111111111-9-8-6-|
D|-111111111111111111-9-8-6-|
A|--9-9-9-9-9-9-9-9-9-7-6-4-|
E|--------------------------|

e|------------------------------------------------------------|
B|------------------------------------------------------------|
G|-4-4-4-4---------4-4-4-4-9-9-9-9-4-4-4-4---------4---4444-4-|
D|-4-4-4-4-4-4-4-4-4-4-4-4-9-9-9-9-4-4-4-4-4-4-4-4-4-4-4444-4-|
A|-2-2-2-2-4-4-4-4-2-2-2-2-7-7-7-7-2-2-2-2-4-4-4-4-2-4-2222-2-|
E|---------2-2-2-2-------------------------2-2-2-2---2--------|

e|-------------7-------------------------------------|
B|---4-5-7-7-7---7-7-5-4--4-5-7-7-7-5-4-5-4----------|
G|-4----------------------------------------6-4-3-4--|
D|---------------------------------------------------|
A|---------------------------------------------------|
E|---------------------------------------------------|

Lyrics:

Get out of my way, 
I'm gonna say, 
little but hard dick, 
Asian Pride. 
Get out of my way, 
I'm gonna say, 
Godzilla went to Hollywood, 
Asian Pride.
Island country, 
No speak English, 
But we wanna see the outside world. 
Get out of my way, 
I'm gonna say, 
Can't we all have Asian Pride.
Tap to rate this tab
 
# A B C D E F G H I J K L M N O P Q R S T U V W X Y Z